» » »

Who Spilt My Beer Tabs (ver.3)

Artists:  A B C D E F G H I J K L M N O P Q R S T U V W X Y Z # 

Who Spilt My Beer Tabs (ver.3)

Adicts
Rating:
0/5 (0 votes)

Hard to play? Try these video lessons and learn fast.
                Of course with all songs you play and like learn, you have to put feeling into it and
a good sense of rhythem and all that good shiza... add scratches and empty notes and like
feels appropriate when youre playing dont play it as is. listen and you know have fun. 
during the chorus.

ps. /  is a slide

Intro

E|-------------------------------------------------------|
B|-------------------------------------------------------|
G|-------------------7---4////6----7-----------9---------|
D|------7------------7---4////6----7----7------9---------|
A|------7------------5---2////4----5----7------7---------|
E|------5-------------------------------5----------------|

                  (x2)

than the bass comes in and does that mad chill thing....
And its all like do doo doo doo doo do...than

E|----------------------------------------------2-----------5--4--5---|
B|----------------------3--2-----------2--5--2-----5--2--5------------|
G|---4b--4b--4b--2h4p2--------4--2--4---------------------------------|
D|--------------------------------------------------------------------|
A|--------------------------------------------------------------------|
E|--------------------------------------------------------------------|

hold last note

verse
E|--------------------------------------------------------------------|
B|--------------------------------------------------------------------|
G|-----------------7-7-77--4-4-44--6-6-66--7-7-77----------9-9-99-----|
D|--7-7-77-7-7-77--7-7-77--4-4-44--6-6-66--7-7-77--7-7-77--9-9-99-----|
A|--7-7-77-7-7-77--5-5-55--2-2-22--4-4-44--5-5-55--7-7-77--7-7-77-----|
E|--5-5-55-5-5-55----------------------------------5-5-55-------------|

chorus
E|--------------------------------------------------------------------|
B|--------------------------------------------------------------------|
G|--------------9-9-99------------------4-4-44------------------------|
D|--------------9-9-99--7-7-77--4-4-44--4-4-44---2--------------------|
A|--7--7--7--7--7-7-77--7-7-77--4-4-44--2-2-22---2--------------------|
E|--5--5--5--5----------5-5-55--2-2-22-----------0--------------------|


solo
E|--------------------------------------------------------------------|
B|-----------------15-14-12----12-----12-15-14-12---------------------|
G|--16b-16b-16b16b----------14-----14---------------------------------|
D|--------------------------------------------------------------------|
A|--------------------------------------------------------------------|
E|--------------------------------------------------------------------|

E|--------------------------------------------------------------------|
B|--------------------------------------------------------------------|
G|--14h16p14h16p14h16p14h16p14h16p14h16-------------------------------|
D|--------------------------------------14----------------------------|
A|--------------------------------------------------------------------|
E|--------------------------------------------------------------------|

That h/p bull cr*p is actually a drill or something. like a punch off hammer-ons and
put together really fast. uhm. b is bend and yeah. this is just like a rough interpretation
what i play when i play this song. do what feels right like i said. i doubt anyone would 
me so i;m not leaving one.. yeah enjoy!
            
Hard to play? Try these video lessons and learn fast. | Correct




comments powered by Disqus
↑ Back to top | Tablatures and chords are parodies/interpretations of the original songs. You may use it for private study, scholarship, research or language learning purposes only