» » »

Adicts, Who Spilt My Beer Tabs (ver.2)

Artists:  A B C D E F G H I J K L M N O P Q R S T U V W X Y Z # 

Who Spilt My Beer Tabs (ver.2)

Adicts Tabs
 Rating:
4/5 (4 votes)
Who Spilt My Beer lessons Tabs too difficult? Try these video lessons and learn fast
1
                intro


E|-------------------------------------------------------------------------|
B|------------------------------------------------------9-9-9-9----9-9-9-9-|
G|------------------------------------------------------9-9-9-9----9-9-9-9-|
D|--------------------7\\\4----6----7-------------------9-9-9-9----9-9-9-9-|
A|------7---------7---5\\\2----4----5----7---------------------------------|
E|------5---------5----------------------5-----4--2------------------------|

                  2X Second time dont mind the 4  2 and just play those 9ths once


E|----------------------------------------------------------5---4---5-|
B|---5b--5b--3-h5-3h5-3---8-7-5-3--5-------5-----7--5-----5-----------|
G|-------------------------------------/6-----6--------6--------------|
D|--------------------------------------------------------------------|
A|--------------------------------------------------------------------|
E|--------------------------------------------------------------------|

 
verse
E|--------------------------------------------------|
B|--------------------------------------------------|
G|---------------------------------------------9-9--|
D|------------------7\\\4----6---7--7/9--------9-9--|
A|--777-7-777-7-----5\\\2----4---5--5/7---7----7-7--|
E|--555-5-555-5---------------------------5---------|

chorus
E|----------------------------------------------------------|
B|----------------------------------------------------------|
G|--14-x-x-14-x-x-14--14-14--------14------11-------------9-|
D|--14-x-x-14-x-x-14--14-14---14---14------11------9------9-|
A|--12-x-x-12-x-x-12--12-12---14---12------9-------9------7-|
E|----------------------------12-------------------7--------|
            
Submit corrections

comments powered by Disqus
↑ Back to top | Adicts Tabs for Who Spilt My Beer. Lyrics for acoustic guitar and electric guitar. 1 Tablatures and chords are parodies/interpretations of the original songs. You may use it for private study, scholarship, research or language learning purposes only