» » »

Adema, Giving In Bass tabs (ver.3)

Artists:  A B C D E F G H I J K L M N O P Q R S T U V W X Y Z # 

Giving In Bass tabs (ver.3)

Adema Tabs
 Rating:
4/5 (4 votes)
Giving In lessons Tabs too difficult? Try these video lessons and learn fast
1
                ----------------------------------------------------------------------------------------------
                 Giving In - Adema
----------------------------------------------------------------------------------------------


I don't think this is 100% right, but it works with the song, there are some variations 
don't not have down, but this works if your playing it in a band, and is more accurate 
others i have seen.

Tuning: 5 String Bass
Intro
G|---------------------------------------|
D|---------------------------------------|
A|---------------------------------------|
E|--44444444555555557777777777777777-----|
B|---------------------------------------|
Guitar riff thing
G|---------------------------------------|
D|---------------------------------------|
A|---------------------------------------|
E|--44-77-99-99--------------------------|
B|---------------------------------------|
Verse
G|---------------------------------------|
D|---------------------------------------|
A|---------------------------------------|
E|--44-00-55-00--------------------------|
B|---------------------------------------|
Chorus
G|---------------------------------------|
D|---------------------------------------|
A|---------------------------------------|
E|--444-7777-9999-22222------------------|
B|---------------------------------------|
Bridge/Breakdown (quiet part)
G|---------------------------------------|
D|---------------------------------------|
A|---------------------------------------|
E|-44-00---------------------------------|
B|-------44------------------------------|
Bridge/Breakdown (Heavy part
G|---------------------------------------|
D|---------------------------------------|
A|---------------------------------------|
E|-44-00---------------------------------|
B|-------44-44---------------------------|

Song Structure:
Intro x2
Guitar Riff Thing x2
Verse x3
Intro x1
Chorus x4
Guitar Riff Thing x1
Verse x4
Intro x1
Chorus x4
Guitar Riff Thing (during solo)x2
Hold G sharp x1
Bridge/Breakdown (quiet part)x3
Bridge/Breakdown (heavy part)x4
Chorus x4
End On G Sharp

| /  slide up
| \  slide down
| h  hammer-on
| p  pull-off
| ~  vibrato
| +  harmonic
| x  Mute note
=============================================================================
            
Submit corrections

comments powered by Disqus
↑ Back to top | Adema Bass for Giving In. Lyrics for acoustic guitar and electric guitar. 1 Tablatures and chords are parodies/interpretations of the original songs. You may use it for private study, scholarship, research or language learning purposes only