» » »

Giving In Tabs (ver.3)

Artists:  A B C D E F G H I J K L M N O P Q R S T U V W X Y Z # 

Giving In Tabs (ver.3)

Adema
Rating:
3/5 (14 votes)

Tabs too difficult? Try these video lessons and learn fast.
                
Tune guitar down 1 half step, then "drop the D" 
(low to high: Db Ab Db Gb Bb Eb)

 h = hammer on
 ^ = bend
 / = slide

Use heavy distortion sucka!

INTRO

Guitar 1 with wah
 
Eb|------------------------------------------------
Bb|------------------------------------------------
Gb|------------------------------------------------
Db|------------------------------------------------
Ab|------------------------------------------------
Db|--9-h10-9---7-h9-7---2-h3-2---2-h3-2------------

Guitar 2 

Eb|------------------------------------------------
Bb|------------------------------------------------
Gb|------------------------------------------------
Db|--7-7--10-10--0-0--0-0--(-3-3-)-----------------
Ab|--7-7--10-10--0-0--0-0--(-3-3-)-----------------
Db|--7-7--10-10--0-0--0-0--(-3-3-)-----------------


VERSE with delay

Eb|----5---5-5-5-5-5----5---5-5-5-5-5--------------
Bb|--6---6------------5---5------------------------
Gb|------------------------------------------------
Db|------------------------------------------------
Ab|------------------------------------------------
Db|------------------------------------------------


CHORUS

Guitar 1 

Eb|--5--3------------------------------------------
Bb|--------5^-5--3--/8-----------------------------
Gb|------------------------------------------------
Db|------------------------------------------------
Ab|------------------------------------------------
Db|------------------------------------------------

Guitar 2

Eb|------------------------------------------------
Bb|------------------------------------------------
Gb|------------------------------------------------
Db|--7-7--3-3--0-0--5-5----------------------------
Ab|--7-7--3-3--0-0--5-5----------------------------
Eb|--7-7--3-3--0-0--5-5----------------------------


SOLO with wah

Eb|------------------------------------------------
Bb|------------------------------------------------
Gb|------------------------------------------------
Db|------10-h12-10--12^-12--10--10-h12-10----------
Ab|--12--------------------------------------------
Db|------------------------------------------------

Eb|-----------------------------------------------|
Bb|-----------------------------------------------|
Gb|---------------------12^-----------------------|
Db|----------10-h12-10------12--10--9--10--9------|
Ab|--12--10---------------------------------------|
Db|-----------------------------------------------|


INTERLUDE

Guitar 1

Eb|--7-h8-7--5-h7-5--------------------------------
Bb|------------------5-h6-5------------------------
Gb|--------------------------4-h5-4----------------
Db|------------------------------------------------
Ab|------------------------------------------------
Db|------------------------------------------------

Guitar 2

Eb|------------------------------------------------
Bb|------------------------------------------------
Gb|------------------------------------------------
Db|--7-7--3-3--2-2--1-1----------------------------
Ab|--7-7--3-3--2-2--1-1----------------------------
Db|--7-7--3-3--2-2--1-1----------------------------


END (let it ring!)

Guitar 1

Eb|--17---------
Bb|-------------
Gb|-------------
Db|-------------
Ab|-------------
Db|-------------

Guitar 2

Eb|-------------
Bb|-------------
Gb|-------------
Db|--7----------
Ab|--7----------
Db|--7----------


That's it, if u f***in got questions or suggestions, feel free to e-m@il me!
            
Tabs too difficult? Try these video lessons and learn fast.




comments powered by Disqus
↑ Back to top | Tablatures and chords are parodies/interpretations of the original songs. You may use it for private study, scholarship, research or language learning purposes only