» » »

Giving In Bass tabs (ver.2)

Artists:  A B C D E F G H I J K L M N O P Q R S T U V W X Y Z # 

Giving In Bass tabs (ver.2)

Adema
Rating:
0/5 (0 votes)

Hard to play? Try these video lessons and learn fast.
                Tuning:    B,E,A,D,G




Intro  x2      Bass starts in with the drums (very softly)
G-------------------------------------------------------------------|
D-------------------------------------------------------------------|
A---------2----4----------------------------------------------------|
E----4--------------------------------------------------------------|
B-------------------------------------------------------------------|

Fill #2  x1
G-------------------------------------------------------------------|
D-------------------------------------------------------------------|
A-------------------------------------------------------------------|
E----0000000--------------------------------------------------------|
B-------------------------------------------------------------------|

Chorus  x4
G-------------------------------------------------------------------|
D-------------------------------------------------------------------|
A--------------2-2-2222--4-4-4444-4-4-4444--------------------------|
E----4-4--4444------------------------------------------------------|
B-------------------------------------------------------------------|

Verse x1
G-------------------------------------------------------------------|
D-------------------------------------------------------------------|
A-------------------------------------------------------------------|
E----4-4--0-0--5-5-------4-4--0-0--5-5------------------------------|
B-------------------4-4-----------------4-4-------------------------|

Fill #2  x1
G-------------------------------------------------------------------|
D----0020-----------------------------------------------------------|
A---------210-------------------------------------------------------|
E-------------30----------------------------------------------------|
B-------------------------------------------------------------------|

Verse    x1
Fill #2  x1
Chorus   x4

Post-Chorus  x2
G-------------------------------------------------------------------|
D-------------------------------------------------------------------|
A---------2-2--4-4--4-4---------------------------------------------|
E----4-4------------------------------------------------------------|
B-------------------------------------------------------------------|

Verse    x1
Fill #2  x1
Verse    x1
Fill #2  x1
Chorus   x4
Post-Chorus  x2
Verse    x2
Chorus   x4
Post-Chorus  x2

Outro
G-------------------------------------------------------------------|
D-------------------------------------------------------------------|
A-------------------------------------------------------------------|
E----4*-------------------------------------------------------------|
B-------------------------------------------------------------------|


Please post any thoughts or corrections
            
Hard to play? Try these video lessons and learn fast. | Correct




comments powered by Disqus
↑ Back to top | Tablatures and chords are parodies/interpretations of the original songs. You may use it for private study, scholarship, research or language learning purposes only