>
 >
Tete A Tete 1

Tete A Tete 1 Guitar Tabs

Acoustic Alchemy - Tete A Tete 1 chords, tabs, tablatures, lyrics

Guitar lessons | Add/correct | Request | Top 50 tabs Artists:  A B C D E F G H I J K L M N O P Q R S T U V W X Y Z 0-9

Tete A Tete 1 Guitar Tabs – Acoustic Alchemy

CD, Sheet music, Poster

Do you like Tete A Tete 1? Share with your friends now
TabsTabs v2
January 09,2003 -Thursday- 11:13 a.m.

Hope you'll enjoy playing this tab... i rate this tab 40 to 50% cuz im pretty
sure its not the same in the original. But it can get through, you know!

2 to 3 Guitars

Intro:
|---5---5---5---------7---7---7------------------------|
|-----------------5-----------------7------------------|
|-----7---7-6-6--7------9---9-8-8--9-------------------|
|----7-7-7---7--7------9-9-9---9--9--------------------|
|---5-------5--5------7-------7--7---------------------|
|------------------------------------------------------|
First Part
|------------------------------------------------------|
|-----------------------7\8/7--------------------------|
|---7-77-7----7\9-9-9--9-----7--------6\7/6------------|
|-------9----9----------------9-9-9--9-----7\9/7-7-----|
|-----------9--------------------9---------------------|
|------------------------------------------------------|

|-----------------------------------------------------------|
|-------------7-8-10-10\12/10---7\8/7-----------------------|
|------7-7\9-------------------------7------6-7-6-----------|
|----9-9------------------------------7\9--------7----------|
|---9---------------------------------------------7-7\9-----|
|-----------------------------------------------------------|

|------------------------------------------------------|
|-------------------------7\8/7------------------------|
|---77-7-7-----99-7-7\9--9-----7----6\7/6--------------|
|-------9-----9-----------------9--9-----7\9/7---------|
|------------9-----------------------------------------|
|------------------------------------------------------|

|----7-5-------------------------------------------------|
|-------5---7-8-10-10\12/10---7\8/7----------------------|
|--------7-------------------------7------6-7-6----------|
|---7-7-----------------------------7\9--------7---------|
|-----------------------------------------------7-7\9----|
|--------------------------------------------------------|
Second Part
|-------------------------5-7-5--------------------------|
|------------------------7-----7-5-3----3-3--------------|
|---------7-------------------------4-2-2-2-4------------|
|---9-7-9-7-9/7-----------------------------4------------|
|--------------9/7-5-------------------------------------|
|-------------------5-7----------------------------------|

|-------------------------5-7-5--------------------------|
|------------------------7-----7-5-3----5-5/3------------|
|---------7-------------------------4-2-4-4/2------------|
|---9-7-9-7-9/7------------------------------------------|
|--------------9/7-5-------------------------------------|
|-------------------5-7----------------------------------|
Third Part
|------------------------------------------------------|
|------8-10-10-8-10-10\12/10---8-7\8/7-----------------|
|---7-9-------------------------------7--------7-------|
|--------------------------------------9-9--7\9-9------|
|------------------------------------------------------|
|------------------------------------------------------|

|-----------------------10-9--------------------------------------|
|---7-8-10-10-10-12-10------10\12------8/7-7----------------------|
|--------------------------------7-9------9-9--------99-8-9-11----|
|----------------------------------------------9/7-99-------------|
|-----------------------------------------------------------------|
|-----------------------------------------------------------------|

|-----------------------------10--12-10-------------------------------|
|---7-8-10-10-10-12-10-12---12--12-----12/10-10-12-------------10-----|
|-------------------------------------------9-----11---9-7\9\11-------|
|---------------------------------------------------------------9-7---|
|---------------------------------------------------------------------|
|---------------------------------------------------------------------|

|-------------------------------------9--7-------------|
|---7\8/7----------10----------------10-10-------------|
|---7----7-9--7\9-7--7-----7-9-7------7--7-------------|
|-----------------------7\9-----9-7---7--7-------------|
|------------------------------------------------------|
|------------------------------------------------------|
repeat intro
piano part here.....
Forth Part
|-------------------------------------------------10-9-----------------------|
|-----------------------7-8-1010-10-10-10\12/10-------12-10-----------10-----|
|----77-7----7-7\9-9---9-----------------------------------11-9-9-9\11--11---|
|---9-------9-9--------------------------------------------------------------|
|----------9-----------------------------------------------------------------|
|----------------------------------------------------------------------------|

|---------------------------------------------------------------|
|---------1010--------------------------------------------------|
|---111213----1111-7\9---7/6\7-9--------------7--9--7-9-7-6-----|
|-------------------------------7-9-7-----7--9-9----------------|
|--------------------------------------7-9-9--------------------|
|---------------------------------------------------------------|
Fifth Part
|---------13/12-10-12----9\10/9-------------------------------10-12-14-12-14-----|
|---10\12------------12--------10-12--10--12-------------10-12--------------12---|
|----9\11----------------------------9--11-----9-7---9\11------------------------|
|-------------------------------------------9/7----------------------------------|
|--------------------------------------------------------------------------------|
|--------------------------------------------------------------------------------|

|---10\12-12-14-12-10----------------7-------------------------------------|
|--------------------12-10--10-----10----7\8/7-8-10-10\12------------------|
|-------------------------11--9---9----------------------9/7---------------|
|----------------------------------------------------------------7-11-9----|
|-------------------------------------------------------------7\9----------|
|--------------------------------------------------------------------------|

|-------------------------5-7-5--------------------------|
|------------------------7-----7-5-3----3-3--------------|
|---------7-------------------------4-2-2-2-4------------|
|---9-7-9-7-9/7-----------------------------4------------|
|--------------9/7-5-------------------------------------|
|-------------------5-7----------------------------------|

|-------------------------5-7-5--------------------------|
|------------------------7-----7-5-3----5-5/3------------|
|---------7-------------------------4-2-4-4/2------------|
|---9-7-9-7-9/7------------------------------------------|
|--------------9/7-5-------------------------------------|
|-------------------5-7----------------------------------|
here part piano.....
Sixth Part
|------------------------------------------------------|
|-----------------------7\8/7--------------------------|
|---7-77-7----7\9-9-9--9-----7--------6\7/6------------|
|-------9----9----------------9-9-9--9-----7\9/7-7-----|
|-----------9--------------------9---------------------|
|------------------------------------------------------|

|-----------------------------------------------------------|
|-------------7-8-10-10\12/10---7\8/7-----------------------|
|------7-7\9-------------------------7------6-7-6-----------|
|----9-9------------------------------7\9--------7----------|
|---9---------------------------------------------7-7\9-----|
|-----------------------------------------------------------|
here part together with piano...
|-------------------------5-7-5--------------------------|
|------------------------7-----7-5-3----3-3--------------|
|---------7-------------------------4-2-2-2-4------------|
|---9-7-9-7-9/7-----------------------------4------------|
|--------------9/7-5-------------------------------------|
|-------------------5-7----------------------------------|

|-------------------------5-7-5--------------------------|
|------------------------7-----7-5-3----5-5/3------------|
|---------7-------------------------4-2-4-4/2------------|
|---9-7-9-7-9/7------------------------------------------|
|--------------9/7-5-------------------------------------|
|-------------------5-7----------------------------------|

|-------------------------5-7-5--------------------------|
|------------------------7-----7-5-3----3-3--------------|
|---------7-------------------------4-2-2-2-4------------|
|---9-7-9-7-9/7-----------------------------4------------|
|--------------9/7-5-------------------------------------|
|-------------------5-7----------------------------------|

|-------------------------5-7-5--------------------------|
|------------------------7-----7-5-3----5-5/3------------|
|---------7-------------------------4-2-4-4/2------------|
|---9-7-9-7-9/7------------------------------------------|
|--------------9/7-5-------------------------------------|
|-------------------5-7----------------------------------|





Comments


Popular Acoustic Alchemy tabs & chords
Ballad For Kay Tabs
Lazeez Tabs
London Skyline Tabs
Milo Tabs
Natural Elements Tabs
No Messin Intro Tabs
Playing For Time Tabs
Playing For Time 1 Tabs
Tete A Tete Tabs
Wind Of Change Tabs


Song lyrics



↑ Back to top | Tablatures and chords are parodies/interpretations of the original songs. You may use it for private study, scholarship, research or language learning purposes only
© 2014 AZChords.com Contact us | Privacy policy | DMCA | Add/correct tabs | Request tabs | Top 50 tabs