>
 >
Tete A Tete

Tete A Tete Guitar Tabs

Acoustic Alchemy - Tete A Tete chords, tabs, tablatures, lyrics

Guitar lessons | Add/correct | Request | Top 50 tabs Artists:  A B C D E F G H I J K L M N O P Q R S T U V W X Y Z 0-9

Tete A Tete Guitar Tabs – Acoustic Alchemy

CD, Sheet music, Poster

Do you like Tete A Tete? Share with your friends now
TabsTabs v2
Acoustic Alchemy- Tete a Tete

-My second most fave song from Acoustic Alch (London Skyline's the first)! This one's
sweet!

-The other tab by AC Peralta helped me figure out the intro... other than that's old
stuff from my archive (had to fix it to the proper font and organize it to make it
easier to follow...tedious, tiresome and time consuming work!). Well, enjoy!

Intro: 00:02 - 00:11
======
e|-5-----5-----5----------7-------7-----7-----------------------------|
B|----------------------5-------------------------7-------------------|
G|----7-----7-----7----7------9-----9-------9----9--------------------|
D|---7-7---7-----7-7--7------9-9---9-------9-9--9---------------------|
A|-5-----5-----5----------7-------7-----7-----------------------------|
E|--------------------------------------------------------------------|
*Twice.

1st part: 00:11 - 00:35.
=========
e|--------------------------------------------------------------------|
B|-3--33~------3/5--5--5---5-7b8r7--3--------------2b3r2-------------|
G|----------0-4------------------------4-4-2-4--4-------4-2--22~---|
D|--------------------------------------------------------------------|
A|--------------------------------------------------------------------|
E|--------------------------------------------------------------------|

e|--------------------------------------------------------------------|
B|-----3-3/5--7-8-10-10/12/107b8r7-3-------2-3-2---------------------|
G|-2-4-------------------------------2-2/4--------2-------------------|
D|--------------------------------------------------2-4---------------|
A|--------------------------------------------------------------------|
E|--------------------------------------------------------------------|

2nd part: 00:36 - 00:57.
=======
e|--------------------------------------------------------------------|
B|-3-3-3-0-3------5-5-5--3-3/5--5-7b8r7-3-----------------------------|
G|------------2-4------------------------4~~-4-6b7r8-4-2-2~----------|
D|--------------------------------------------------------------------|
A|--------------------------------------------------------------------|
E|--------------------------------------------------------------------|

e|---7---5------------5-5/7/5-----------------------------------------|
B|----------5~--5-7-8----------7b8r7-3-----2-3-2----------------------|
G|-4---4------------------------------2/4--------2--------------------|
D|-------------------------------------------------2-4----------------|
A|--------------------------------------------------------------------|
E|--------------------------------------------------------------------|

3rd Part: 00:58 - 01:08.
=========
e|--------------------------------5-7-5-------------------------------|
B|------3b4r3-------------------7-------7-5---------------------------|
G|4-2-4-------4-2---------------------------7-4---7--7-4~-------------|
D|----------------2b3r2-------------------------7---------------------|
A|------------------------0--2----------------------------------------|
E|----------------------2---------------------------------------------|

e|--------------------------------5-7-5-------------------------------|
B|------3b4r3-------------------7-------7-5-------5--5----------------|
G|4-2-4-------4-2---------------------------7-4--------7~-------------|
D|----------------2b3r2-------------------------7---------------------|
A|------------------------0--2----------------------------------------|
E|----------------------2---------------------------------------------|

4th Part: 01:09 - 02:03.
=========
e|--------------------------------------------------------------------|
B|-7-8-10-10-10~-10/12/10---8-7b8r7--3-----------3-------------------|
G|-------------------------------------4--4---2/4---4~----------------|
D|--------------------------------------------------------------------|
A|--------------------------------------------------------------------|
E|--------------------------------------------------------------------|

e|----------------------10-9------------------------------------------|
B|-7h8/10--10-10-12-10-------10/12/10--8-7---7------------------------|
G|-----------------------------------------9---9~---------------------|
D|--------------------------------------------------------------------|
A|--------------------------------------------------------------------|
E|--------------------------------------------------------------------|

e|--------------------------------------------------------------------|
B|---------5-5-4-5/7---7-8/10--10--10-12-10--12-10--12-10-------------|
G|-2-4-2-2------------------------------------------------------------|
D|--------------------------------------------------------------------|
A|--------------------------------------------------------------------|
E|--------------------------------------------------------------------|

e|---10---12-10-9---------------------------------------5~------------|
B|---------------10---10-12------9p7h9/11/9---7t-3/5-3---------3-5---|
G|-11---11---------11-------11~------------9--------------2-3-4-----4~|
D|--------------------------------------------------------------------|
A|--------------------------------------------------------------------|
E|--------------------------------------------------------------------|

e|-5~--7~-------------------------------------------------------------|
B|-5~--7~-------------------------------------------------------------|
G|-7~--9~-------------------------------------------------------------|
D|-7~--9~-------------------------------------------------------------|
A|-5~--7~-------------------------------------------------------------|
E|--------------------------------------------------------------------|

e|-5-----5-----5----------7-------7-----7-----------------------------|
B|----------------------5-------------------------5-------------------|
G|----7-----7-----7----7------9-----9-------9----9--------------------|
D|---7-7---7-----7-7--7------9-9---9-------9-9--9---------------------|
A|-5-----5-----5----------7-------7-----7-----------------------------|
E|--------------------------------------------------------------------|
*Twice.
-In the 2nd time, a harmonic riff ensues.
e|-------------7------------------------------------------------------|
B|---5~~--9-----7~~--5~~----------------------------------------------|
G|-7------------------------------------------------------------------|
D|---------9~~--------------------------------------------------------|
A|--------------------------------------------------------------------|
E|--------------------------------------------------------------------|
*All harmonics.

5th part: 2:03 - 2:23.
=========

e|--------------------------------------------------------------------|
B|---3-3-3------33/5-5--5-7-8-10--10-10--10-10/12--10---------------|
G|-4--------2-4-------------------------------------------------------|
D|--------------------------------------------------------------------|
A|--------------------------------------------------------------------|
E|--------------------------------------------------------------------|

e|-10-9---------------------------------------------------------------|
B|------12-10--------------10-------------10-10-----------------------|
G|------------11-9--9-9/11----11---9-11-12------11-11-7/9-------------|
D|--------------------------------------------------------------------|
A|--------------------------------------------------------------------|
E|--------------------------------------------------------------------|

e|--------------------------------------------------------------------|
B|--------------------------------------------------------------------|
G|-7-5h7/9-------------------7----9--7-9-7-6~~------------------------|
D|--------7-9-7-------7--8-9---9--------------------------------------|
A|----------------6-8-------------------------------------------------|
E|--------------------------------------------------------------------|

6th part: 2:25 - 2:46.
=========
e|-6/7~/---13/12-10-10-12-10/9---------------------------------------|
B|-7/8~/--------------------------12---10---12------------------------|
G|-6/7~/------------------------11---10---11---10------9--------------|
D|------------------------------------------------12-9---10/12--------|
A|--------------------------------------------------------------------|
E|--------------------------------------------------------------------|

e|----(--10)-12--1412~-1410/12-12-14-12-11-------------------7------|
B|----(-11-)--------------------------------12-----10--------10---7~--|
G|-10-(10--)----------------------------------11-10-9~----9----------|
D|--------------------------------------------------------------------|
A|--------------------------------------------------------------------|
E|--------------------------------------------------------------------|
*( ) = palm muted

e|--------------------------------------------------------------------|
B|-7h8p7-8-10-10/12------------------2--------------------------------|
G|-------------------11/9-7~-------2---4~-----------------------------|
D|-----------------------------2h4------------------------------------|
A|--------------------------------------------------------------------|
E|--------------------------------------------------------------------|

-Repeat the 3rd part afterwards. (2:47 - 2:57)

-Piano part ensues. (2:58 - 3:41)

-Repeat Intro. (3:41 - 3:52)

-Repeat 1st part. (3:52 - 4:13)

Last Part: 4:14 - 4:42 (fades out)
==========
-Repeat the 3rd part twice and prolong the last note.

.........And that's it!



-Ifyhard





Comments


Popular Acoustic Alchemy tabs & chords
The Beautiful Game Bass Tabs
Alchemist Tabs
Ballad For Kay 1 Tabs
Clear Air For Miles Tabs
Jamaican Heartbeat Intro Tabs
Lazeez Tabs
Natural Elements Tabs
Natural Elements Intro Tabs
Nouveau Tango Tabs
Playing For Time 1 Tabs


Song lyrics



↑ Back to top | Tablatures and chords are parodies/interpretations of the original songs. You may use it for private study, scholarship, research or language learning purposes only
© 2014 AZChords.com Contact us | Privacy policy | DMCA | Add/correct tabs | Request tabs | Top 50 tabs