» » »

Wind Of Change Tabs (ver.1)

Artists:  A B C D E F G H I J K L M N O P Q R S T U V W X Y Z # 

Wind Of Change Tabs (ver.1)

Acoustic Alchemy
Rating:
5/5 (1 vote)

Tabs too difficult? Try these video lessons and learn fast.
                -------------------------------------------------------------------------------
-------------------------------------------------------------------------------

Tuning: DAdGBe, Capo 1st fret

e|------0------2p0-------------------------------------------------------|
B|-----------------------3------------------3--------3p2-----2-----2-----|
G|----2------2---------2----------4-------4--------2-----2-------2-----2-|
d|--------0---------------------5-------4--------2---------2---2-----2---|
A|--4-------------------------5-------2--------0-------------------------|
D|------------------4-------5--------------------------------------------|

e|------0------2p0-------------------------------------------------------|
B|-----------------------3------------------3--------3p2------2----------|
G|----2------2---------2----------4-------4--------2-----2---------2-----|
d|--------0---------------------5-------4--------2---------2-----2-------|
A|--4-------------------------5-------2--------0-------------------------|
D|------------------4-------5--------------------------------------------|

e|--------5---7------7---3------3--2-----2--0--------------0-------------|
B|------3---------------------3--------3--------2-----2--------2-----2---|
G|----2------------7--------0--------2--------2-----2---2----2-----2---2-|
d|---------------0-----------------0-------------------------------------|
A|------------------------------------------0-----0--------0-----0-------|
D|-4----------5----------2-----------------------------------------------|

e|--------5---7------7---3------3--2-----2--5----------------------------|
B|------3---------------------3--------3--------2-----2--------2-----2---|
G|----2------------7--------0--------2--------2-----2---2----2-----2---2-|
d|---------------0-----------------0-------------------------------------|
A|------------------------------------------0-----0--------0-----0-------|
D|-4----------5----------2-----------------------------------------------|

e|-----------------------------------------------------------------------|
B|-----2-----2-----------------------------------------------------------|
G|---2-----2---2---------------------------------------------------------|
d|-----------------------------------------------------------------------|
A|-0-----0---------------------------------------------------------------|
D|-----------------------------------------------------------------------|
(just general guidelines for this part - I'm sure Greg does more.)
e|-----0----2------3----0----0---0----2----2----0----0----0-----2-----3--|
B|-----------------------------------------------------------------------|
G|---2----2-----4-----2----2---2----2----2----2----2----2-----2-----4----|
d|------0-----5-------------------0----0--------------------0-----5------|
A|-0-----------------0----0------------------0----0----0-----------------|
D|-----------------------------------------------------------------------|

e|-------2-----0-----0---0-----------------------------------------------|
B|-----------------------------------------------------------------------|
G|-----2-----2-----2---2-------------------------------------------------|
d|---0-------------------------------------------------------------------|
A|---------0-----0-------------------------------------------------------|
D|-----------------------------------------------------------------------|

e|--------5---7------7---3------3--2-----2--0--------------0-------------|
B|------3---------------------3--------3--------2-----2--------2-----2---|
G|----2------------7--------0--------2--------2-----2---2----2-----2---2-|
d|---------------0-----------------0-------------------------------------|
A|------------------------------------------0-----0--------0-----0-------|
D|-4----------5----------2-----------------------------------------------|

e|------0------2p0-------------------------------------------------------|
B|-----------------------3------------------3--------3p2------2----------|
G|----2------2---------2----------4-------4--------2-----2---------2-----|
d|--------0---------------------5-------4--------2---------2-----2-------|
A|--4-------------------------5-------2--------0-------------------------|
D|------------------4-------5--------------------------------------------|
(again, just the basics)
e|--------------------------------------------------------|
B|---------2---2--------3--2----------2---2---------5--3--|
G|------2--2---2-----2--2--2-------2--2---2------2--4--2--|
d|----2------------2----4--2-----2-------------2-------4--|
A|--0--------0---0-------------0--------0----0------------|
D|--------------------------------------------------------|

e|-----------------------------------------------------------------------|
B|-----------------------------------------------------------------------|
G|-----0----0---------0----0---------0----0---------0----0---------------|
d|---4----4----4----4----4----4----0----0----0----0----0----0------------|
A|-----------------------------------------------------------------------|
D|--0----0----0----0----0----0----5----5----5----5----5----5-------------|

e|-----------------------------------------------------------------------|
B|-----------------------------------------------------------------------|
G|-----0----0---------0----0---------0-----0----------0----0-------------|
d|---4----4----4----4----4----4----0-----0-----0----0----0----0----------|
A|-----------------------------------------------------------------------|
D|--0----0----0----0----0----0---10----10----10----8----8----8-----------|

e|-----------------------------------------------------------------------|
B|-----------------------------------------------------------------------|
G|-----0----0---------0----0----------0----0---------0----0--------------|
d|---0----0----0----0----0----0-----4----4----4----4----4----4-----------|
A|-----------------------------------------------------------------------|
D|--5----5----5----5----5----5-----0----0----0----0----0----0------------|

e|------0------2p0-------------------------------------------------------|
B|-----------------------3------------------3--------3p2-----2-----2-----|
G|----2------2---------2----------4-------4--------2-----2-------2-----2-|
d|--------0---------------------5-------4--------2---------2---2-----2---|
A|--4-------------------------5-------2--------0-------------------------|
D|------------------4-------5--------------------------------------------|

e|------0------2p0-------------------------------------------------------|
B|-----------------------3------------------3--------3p2-----2-----2-----|
G|----2------2---------2----------4-------4--------2-----2-------2-----2-|
d|--------0---------------------5-------4--------2---------2---2-----2---|
A|--4-------------------------5-------2--------0-------------------------|
D|------------------4-------5--------------------------------------------|

e|--------5---7------7---3------3--2-----2--0--------------0-------------|
B|------3---------------------3--------3--------2-----2--------2-----2---|
G|----2------------7--------0--------2--------2-----2---2----2-----2---2-|
d|---------------0-----------------0-------------------------------------|
A|------------------------------------------0-----0--------0-----0-------|
D|-4----------5----------2-----------------------------------------------|

e|------0------2p0-------------------------------------------------------|
B|-----------------------3------------------3--------3p2-----2-----2-----|
G|----2------2---------2----------4-------4--------2-----2-------2-----2-|
d|--------0---------------------5-------4--------2---------2---2-----2---|
A|--4-------------------------5-------2--------0-------------------------|
D|------------------4-------5--------------------------------------------|

e|-----------------------------------------------------------------------|
B|-----------------------------------------------------------------------|
G|-----0----0---------0----0---------0----0------------------------------|
d|---4----4----4----4----4----4----4----4----4-----4---------------------|
A|------------------------------------------------0----------------------|
D|--0----0----0----0----0----0----0----0----0----0-----------------------|


NOTE: This was learned, from a DVD, by my amazing 13-yr old brother who
asked me to tab it for him. And I just want to give him credit for it -
he's a phenomenal guitarist!
            
Tabs too difficult? Try these video lessons and learn fast.




comments powered by Disqus
↑ Back to top | Tablatures and chords are parodies/interpretations of the original songs. You may use it for private study, scholarship, research or language learning purposes only