» » »

A Change Of Pace, Weekend Warriors Tabs (ver.5)

Artists:  A B C D E F G H I J K L M N O P Q R S T U V W X Y Z # 

Weekend Warriors Tabs (ver.5)

A Change Of Pace Tabs
Rating:
0/5 (0 votes)
Weekend Warriors lessons Tabs too difficult? Try these video lessons and learn fast
                -------------------------------------------------------
Weekend Warriors - A Change of Pace
-------------------------------------------------------
Note: I couldn't find any complete tabs for this song,
so i decided to tab it out myself. This tab is NOT 100%
correct. However, I've been listening to the song over
and over, and I'd say it's pretty damn close. If you
like to thank Jon Cheyney for the intro and rythym
parts.


Tuning: Dropped D (D,A,D,G,B,E)
If you want to play it in E, it's not much different.
Just play a first position D chord instead of open
in the chorus.


Intro/Verse 1 - 5x - (One Guitar for 2x in intro)
e|----------------------------------------------------|
B|----------------------------------------------------|
G|--------------7--6-7-7------------------------------|
D|--4-2-4---4-2-7--6-7-7--7-7-7-7-7--2-2-2---7--6--2--|
A|--4-2-4---4-2-5--4-5-5--7-7-7-7-7--2-2-2---7--6--2--|
D|--4-2-4---4-2-----------7-7-7-7-7--2-2-2---7--6--2--|



Pre Chorus
e|-----------------------------------------|
B|-----------------------------------------|
G|--7~--------------7~----7-7-7-7-7-7-7-7--|
D|--7~------4~------7~----7-7-7-7-7-7-7-7--|
A|--5~------4~------5~----5-5-5-5-5-5-5-5--|
D|----------4~-----------------------------|
^
I play this as a regular D instead of a barring it.
It seems to make it flow better.


First Chorus - Both Guitars 2x
e|----------------------------------------------------|
B|----------------------------------------------------|
G|----------------------------------------------------|
D|--77777777-22222222-44444444-00000000---------------|
A|--77777777-22222222-44444444-00000000---------------|
D|--77777777-22222222-44444444-00000000---------------|

Verse 2 - 3x

|--only one guitar----|
e|----------------------*-----------------------------|
B|----------------------*-----------------------------|
G|--------------7--6-7-7*-----------------------------|
D|--4-2-4---4-2-7--6-7-7*-7-7-7-7-7--2-2-2---7--6--2--|
A|--4-2-4---4-2-5--4-5-5*-7-7-7-7-7--2-2-2---7--6--2--|
D|--4-2-4---4-2---------*-7-7-7-7-7--2-2-2---7--6--2--|

Second Chorus

Rythym 2x
e|----------------------------------------------------|
B|----------------------------------------------------|
G|----------------------------------------------------|
D|--77777777-22222222-44444444-00000000---------------|
A|--77777777-22222222-44444444-00000000---------------|
D|--77777777-22222222-44444444-00000000---------------|



Lead 7x
e|-------12---------9---------------------------------|
B|--9-10----10-9-10---10------------------------------|
G|----------------------------------------------------|
D|----------------------------------------------------|
A|----------------------------------------------------|
D|----------------------------------------------------|

e|--12-10-9----9--------------------------------------|
B|----------12---12-10-10-10-10-10--------------------|
G|----------------------------------------------------|
D|----------------------------------------------------|
A|----------------------------------------------------|
D|----------------------------------------------------|



Solo/Bridge

Rythym (2x)
e|----------------------------------------------------|
B|----------------------------------------------------|
G|------------------------7-7-7-7-7-7-7-7-7-7-7-7-----|
D|--4----6---7---6--4--2--7-7-7-7-7-7-7-7-7-7-7-7-----|
A|--4----6---7---6--4--2--5-5-5-5-5-5-5-5-5-5-5-5-----|
D|--4----6---7---6--4--2------------------------------|

e|----------------------------------------------------|
B|----------------------------------------------------|
G|------------------6-----7-7-7-7-7-7-7-7-7-7-7-7-----|
D|--4----6---7---9--6--9--7-7-7-5-7-7-7-7-7-7-7-7-----|
A|--4----6---7---9--4--9--5-5-5-5-5-5-5-5-5-5-5-5-----|
D|--4----6---7---9-----9------------------------------|

e|----------------------------------------------------|
B|----------------------------------------------------|
G|------------------------4-4-4-4-4-4-7-7-7-7-7-7-----|
D|--4----6---7---6--4--2--4-4-4-4-4-4-7-7-7-7-7-7-----|
A|--4----6---7---6--4--2--2-2-2-2-2-2-5-5-5-5-5-5-----|
D|--4----6---7---6--4--2------------------------------|



Lead
E|--9p7--------9p7--------9p7--------9p7--------|--2x-|
B|-------10p7-------10p7-------10p7-------10p7--|-----|
G|----------------------------------------------|-----|
D|----------------------------------------------|-----|
A|----------------------------------------------|-----|
D|----------------------------------------------|-----|

E|---14b----------------------------------------|--1x-|
B|----------------------------------------------|-----|
G|----------------------------------------------|-----|
D|----------------------------------------------|-----|
A|----------------------------------------------|-----|
D|----------------------------------------------|-----|

E|--9p7--------9p7--------9p7--------9p7--------|--2x-|
B|-------10p7-------10p7-------10p7-------10p7--|-----|
G|----------------------------------------------|-----|
D|----------------------------------------------|-----|
A|----------------------------------------------|-----|
D|----------------------------------------------|-----|

E|---14b----12b-10b-----------------------------|--1x-|
B|----------------------------------------------|-----|
G|----------------------------------------------|-----|
D|----------------------------------------------|-----|
A|----------------------------------------------|-----|
D|----------------------------------------------|-----|

E|--9p7--------9p7--------9p7--------9p7--------|--2x-|
B|-------10p7-------10p7-------10p7-------10p7--|-----|
G|----------------------------------------------|-----|
D|----------------------------------------------|-----|
A|----------------------------------------------|-----|
D|----------------------------------------------|-----|

E|---14b----------------------------------------|--1x-|
B|----------------------------------------------|-----|
G|----------------------------------------------|-----|
D|----------------------------------------------|-----|
A|----------------------------------------------|-----|
D|----------------------------------------------|-----|

E|--9p7--------9p7--------9p7--------9p7--------|--2x-|
B|-------10p7-------10p7-------10p7-------10p7--|-----|
G|----------------------------------------------|-----|
D|----------------------------------------------|-----|
A|----------------------------------------------|-----|
D|----------------------------------------------|-----|

E|---7b----9b-10b----12b------------------------|--1x-|
B|----------------------------------------------|-----|
G|----------------------------------------------|-----|
D|----------------------------------------------|-----|
A|----------------------------------------------|-----|
D|----------------------------------------------|-----|



Clean w/ Phaser(2x)
e|----------------------------------------------------|
B|----------------------------------------------------|
G|----------------------------------------------------|
D|--77777777-22222222-44444444-00000000---------------|
A|--77777777-22222222-44444444-00000000---------------|
D|--77777777-22222222-44444444-00000000---------------|

e|----------------------------------------------------|
B|----------------------------------------------------|
G|-----------------------------77777777---------------|
D|--77777777-22222222-44444444-77777777---------------|
A|--77777777-22222222-44444444-55555555---------------|
D|--77777777-22222222-44444444------------------------|
........
Distortion kicks in



Chorus

Rythym
e|----------------------------------------------------|
B|----------------------------------------------------|
G|----------------------------------------------------|
D|--77777777-22222222-44444444-00000000---------------|
A|--77777777-22222222-44444444-00000000---------------|
D|--77777777-22222222-44444444-00000000---------------|

e|----------------------------------------------------|
B|----------------------------------------------------|
G|----------------------------------------------------|
D|--99999999-44444444-66666666-22222222---------------|
A|--99999999-44444444-66666666-22222222---------------|
D|--99999999-44444444-66666666-22222222---------------|



Lead
7x
e|-------12---------9---------------------------------|
B|--9-10----10-9-10---10------------------------------|
G|----------------------------------------------------|
D|----------------------------------------------------|
A|----------------------------------------------------|
D|----------------------------------------------------|

e|--12-10-9----9--------------------------------------|
B|----------12---12-10-9------------------------------|
G|----------------------------------------------------|
D|----------------------------------------------------|
A|----------------------------------------------------|
D|----------------------------------------------------|

7x
e|--------14----------11------------------------------|
B|--10-12----12-10-12----12---------------------------|
G|----------------------------------------------------|
D|----------------------------------------------------|
A|----------------------------------------------------|
D|----------------------------------------------------|

e|--14-12-11----11------------------------------------|
B|-----------14----14-12-11---------------------------|
G|----------------------------------------------------|
D|----------------------------------------------------|
A|----------------------------------------------------|
D|----------------------------------------------------|


Outro - Only One Guitar
e|----------------------------------------------------|
B|----------------------------------------------------|
G|---------------9------------------------------------|
D|--6-4-6---6-4--9------------------------------------|
A|--6-4-6---6-4--7------------------------------------|
D|--6-4-6---6-4---------------------------------------|


| / slide up
| \ slide down
| h hammer-on
| p pull-off
| ~ vibrato
| + harmonic
| x Mute note
            

comments powered by Disqus
↑ Back to top | A Change Of Pace Tabs for Weekend Warriors. Lyrics for acoustic guitar and electric guitar. Tablatures and chords are parodies/interpretations of the original songs. You may use it for private study, scholarship, research or language learning purposes only