» » »

A Change Of Pace, Weekend Warriors Tabs (ver.3)

Artists:  A B C D E F G H I J K L M N O P Q R S T U V W X Y Z # 

Weekend Warriors Tabs (ver.3)

A Change Of Pace Tabs
Rating:
4/5 (5 votes)
Weekend Warriors lessons Tabs too difficult? Try these video lessons and learn fast
                There was one tab with the intro 
So I finished the backing guitar
- Jon Cheyney

Tuning: Dropped D (D,A,D,G,B,E)

Intro/Verse
e|----------------------------------------------------|
B|----------------------------------------------------|
G|--------------7--6-7-7------------------------------|
D|--4-2-4---4-2-7--6-7-7--7-7-7-7-7--2-2-2---7--6--2--|
A|--4-2-4---4-2-5--4-5-5--7-7-7-7-7--2-2-2---7--6--2--|
D|--4-2-4---4-2-----------7-7-7-7-7--2-2-2---7--6--2--|

Pre Chorus
e|-----------------------------------------|
B|-----------------------------------------|
G|--7---------------7~----7-7-7-7-7-7-7-7--|
D|--7~------4~------7~----7-7-7-7-7-7-7-7--|
A|--5~------4~------5~----5-5-5-5-5-5-5-5--|
D|----------4~-----------------------------|

Chorus
e|----------------------------------------------------|
B|----------------------------------------------------|
G|----------------------------------------------------|
D|--7-------2-------4-------0-------------------------|
A|--7-(8x)--2-(8x)--4-(8x)--0-(8x)--------------------|
D|--7-------2-------4-------0-------------------------|

Bridge (2x)
e|----------------------------------------------------|
B|----------------------------------------------------|
G|----------------------------7-7-7-7-7-7-7-7-7-7-7-7-|
D|--4-4--6-6--7-7--6-6--4--2--7-7-7-7-7-7-7-7-7-7-7-7-|
A|--4-4--6-6--7-7--6-6--4--2--5-5-5-5-5-5-5-5-5-5-5-5-|
D|--4-4--6-6--7-7--6-6--4--2--------------------------|

Bridge Cont. (1x)
e|----------------------------------------------------|
B|----------------------------------------------------|
G|----------------------6-----7-7-7-7-7-7-7-7-7-7-7-7-|
D|--4-4--6-6--7-7--9-9--6--9--7-7-7-5-7-7-7-7-7-7-7-7-|
A|--4-4--6-6--7-7--9-9--4--9--5-5-5-5-5-5-5-5-5-5-5-5-|
D|--4-4--6-6--7-7--9-9-----9--------------------------|

Bridge Cont. (1x)
e|----------------------------------------------------|
B|----------------------------------------------------|
G|----------------------------4-4-4-4-4-4-7-7-7-7-7-7-|
D|--4-4--6-6--7-7--6-6--4--2--4-4-4-4-4-4-7-7-7-7-7-7-|
A|--4-4--6-6--7-7--6-6--4--2--2-2-2-2-2-2-5-5-5-5-5-5-|
D|--4-4--6-6--7-7--6-6--4--2--------------------------|

Clean (2x)
e|---------------------------------|------------------|
B|---------------------------------|------------------|
G|---------------------------------|-0-0-0-0-0-0-0-0-0|
D|--7-------2-------4-------0------|-0-0-0-0-0-0-0-0-0|
A|--7-(8x)--2-(8x)--4-(8x)--0-(8x--|-0-0-0-0-0-0-0-0-0|
D|--7-------2-------4-------0------|------------------|
                                     . . . . 
Chorus
e|----------------------------------------------------|
B|----------------------------------------------------|
G|----------------------------------------------------|
D|--7-------2-------4-------0-------------------------|
A|--7-(8x)--2-(8x)--4-(8x)--0-(8x)--------------------|
D|--7-------2-------4-------0-------------------------|

Outro Chorus
e|----------------------------------------------------|
B|----------------------------------------------------|
G|----------------------------------------------------|
D|--9-------4-------6-------2-------------------------|
A|--9-(8x)--4-(8x)--6-(8x)--2-(8x)--------------------|
D|--9-------4-------6-------2-------------------------|

e|----------------------------------------------------|
B|----------------------------------------------------|
G|---------------9------------------------------------|
D|--6-4-6---6-4--9------------------------------------|
A|--6-4-6---6-4--7------------------------------------|
D|--6-4-6---6-4---------------------------------------|


out the lead part or if there are any corrections
Thanks!
            

comments powered by Disqus
↑ Back to top | A Change Of Pace Tabs for Weekend Warriors. Lyrics for acoustic guitar and electric guitar. Tablatures and chords are parodies/interpretations of the original songs. You may use it for private study, scholarship, research or language learning purposes only