» » »

A Change Of Pace, Weekend Warriors Bass tabs (ver.1)

Artists:  A B C D E F G H I J K L M N O P Q R S T U V W X Y Z # 

Weekend Warriors Bass tabs (ver.1)

A Change Of Pace Tabs
Rating:
4/5 (1 vote)
Weekend Warriors lessons Tabs too difficult? Try these video lessons and learn fast
                -------------------------------------------------------------------------------
		Weekend Warriors – A Change of Pace
-------------------------------------------------------------------------------


Tuning:Standard (EADG)


Intro/Verse x3 (Only guitar on the intro) 
G|---------------------------------------------------------------------------|
D|---------------------------------------------------------------------------|
A|------------5---455--00000000----------------------------------------------|
E|----202---20------------------00000540-------------------------------------|


Pre-Chorus
G|---------------------------------------------------------------------------|
D|---------------------------------------------------------------------------|
A|-----55555555----------555555555--555555555--------------------------------|
E|--------------22222222-----------------------------------------------------|


Chorus x2
G|---------------------------------------------------------------------------|
D|---------------------------------------------------------------------------|
A|-----00000000-------------------55555555-----------------------------------|
E|--------------00000000-22222222--------------------------------------------|

Second Verse x3
G|---------------------------------------------------------------------------|
D|---------------------------------------------------------------------------|
A|-----------5---455--00000000-----------------------------------------------|
E|-----202-20-----------------00000540---------------------------------------|




Second Chorus x2
G|---------------------------------------------------------------------------|
D|---------------------------------------------------------------------------|
A|-----00000000-----------------55555555-55555555(2nd time through)-----------|            
E|-------------00000000-22222222---------------------------------------------|

Bridge x2
G|---------------------------------------------------------------------------|
D|---------------------------------------------------------------------------|
A|-----------------5555555555555555------------------------------------------|
E|-----2-4-5-4-2-0-----------------------------------------------------------|
       x1
G|---------------------------------------------------------------------------|
D|---------------------------------------------------------------------------|
A|-----------2-4-7-5555555555555555------------------------------------------|
E|-----2-4-5-----------------------------------------------------------------|

G|---------------------------------------------------------------------------|
D|---------------------------------------------------------------------------|
A|-----------------2222222222222222-5555555555555555-------------------------|
E|-----2-4-5-4-2-0-----------------------------------------------------------|

Third and Fourth Chorus x4
G|---------------------------------------------------------------------------|
D|---------------------------------------------------------------------------|
A|-----00000000-----------------55555555-------------------------------------|
E|-------------00000000-22222222---------------------------------------------|

Last Chorus/End
G|---------------------------------------------------------------------------|
D|---------------------------------------------------------------------------|
A|-----22222222-----------------------------------5--------------------------|
E|-------------22222222-44444444-00000000---202-20---------------------------|
            
Submit corrections

comments powered by Disqus
↑ Back to top | A Change Of Pace Bass for Weekend Warriors. Lyrics for acoustic guitar and electric guitar. Tablatures and chords are parodies/interpretations of the original songs. You may use it for private study, scholarship, research or language learning purposes only