» » »

A Change Of Pace, Weekend Warriors Bass tabs (ver.2)

Artists:  A B C D E F G H I J K L M N O P Q R S T U V W X Y Z # 

Weekend Warriors Bass tabs (ver.2)

A Change Of Pace Tabs
Rating:
5/5 (1 vote)
Weekend Warriors lessons Tabs too difficult? Try these video lessons and learn fast
                -------------------------------------------------------------------------------
			    Weekend Warriors - A change of pace
-------------------------------------------------------------------------------


Tuning: drop d
Wait for guitar intro
Intro x4
G|---------------------------------------------------------------------------|
D|---------------------------------------------------------------------------|
A|----------------5---4-5-5--------------------------------------------------|
D|---4-2-4----4-2---------------7-7-7-7--2-2-2---7-6-2-----------------------|

Pre Chorus x1

G|---------------------------------------------------------------------------|
D|---------------------------------------------------------------------------|
A|---5~----------5~-----5-5-5-5-5-5-5-5--------------------------------------|
D|---------4~----------------------------------------------------------------|

Chorus x2

G|---------------------------------------------------------------------------|
D|---------------------------------------------------------------------------|
A|---------------------------------------------------------------------------|
D|--7-(x8)---2-(x8)----4-(x8)----0-(x8)--------------------------------------|

Verse x4 ( wait for guitar first )

Pre Chorus x1

Chorus x2

Bridge x2
G|---------------------------------------------------------------------------|
D|---------------------------------------------------------------------------|
A|---------------------------------5-5-5-5-5-5-5-5-5-5-5-5-------------------|
D|---4-4----6-6---7-7--6-6--4-2----------------------------------------------|

Bridge continued x1
G|---------------------------------------------------------------------------|
D|---------------------------------------------------------------------------|
A|-----------------------4----5-5-5-5-5-5-5-5-5-5-5-5------------------------|
D|---4-4--6-6--7-7--9-9-----9------------------------------------------------|

Bridge continued x1
G|---------------------------------------------------------------------------|
D|---------------------------------------------------------------------------|
A|---------------------------2-2-2-2-2-2-5-5-5-5-5-5-------------------------|
D|--4-4--6-6--7-7--6-6--4-2--------------------------------------------------|

Repeat Chorus x3

Outro Chorus
G|---------------------------------------------------------------------------|
D|---------------------------------------------------------------------------|
A|---------------------------------------------------------------------------|
D|---9-(x8)---4-(x8)---6-(x8)---2-(x8)---------------------------------------|

G|---------------------------------------------------------------------------|
D|---------------------------------------------------------------------------|
A|--------------7------------------------------------------------------------|
D|---6-4-6--6-4--------------------------------------------------------------|

G|---------------------------------------------------------------------------|
D|---------------------------------------------------------------------------|
A|---------------------------------------------------------------------------|
E|---------------------------------------------------------------------------|


| /  slide up
| \  slide down
| h  hammer-on
| p  pull-off
| ~  vibrato
| +  harmonic
| x  Mute note
===============================================================================
            

comments powered by Disqus
↑ Back to top | A Change Of Pace Bass for Weekend Warriors. Lyrics for acoustic guitar and electric guitar. Tablatures and chords are parodies/interpretations of the original songs. You may use it for private study, scholarship, research or language learning purposes only