» » »

Ace Frehley, Snow Blind Tabs (ver.2)

Artists:  A B C D E F G H I J K L M N O P Q R S T U V W X Y Z # 

Snow Blind Tabs (ver.2)

Ace Frehley Tabs
Rating:
0/5 (0 votes)
Snow Blind lessons Tabs too difficult? Try these video lessons and learn fast
                This is one of my favourite songs of Ace. Enjoy playing the song (but I don't have the Solo)!

Intro
---------------------------------------------|
---------------------------------------------|
---------12---------11---------10---------9--| x 2
---------10---------9----------8----------7--|
--0-0--0-----0-0--0-----0-0--0-----0-0--0----|
---------------------------------------------|

---------------------------------------------|
---------------------------------------------|
---------------------------------------------| x 2
---------10---------9----------8--------7----|
--0-0--0-----0-0--0-----0-0--0-----0-0--0----|
---------------------------------------------|


Rythm
---------------------------------------------|
---------------------------------------------|
---------------------------------------------| (I don't have the exact number
--2-2-2--2----5-5---5-5-2-2-2--2-------------| , listen to the song for it.)
--0-0-0--0-5--3-3---3-3-0-0-0--0-5--3-3--3/5-|
-----------3---------------------3--1-1--1/3-|

---------------------------|
---------------------------|
---------------------------|
--2-2-2--2-----------------|
--0-0-0--0-5--3-3--5--5/6--|
-----------3--1-1--3--3/4--|

Solo, then repeat with the exact number at the good time.

Thank you seeing the tab!
            
Submit corrections

comments powered by Disqus
↑ Back to top | Ace Frehley Tabs for Snow Blind. Lyrics for acoustic guitar and electric guitar. Tablatures and chords are parodies/interpretations of the original songs. You may use it for private study, scholarship, research or language learning purposes only