» » »

What's On Your Mind? Tabs (ver.1)

Artists:  A B C D E F G H I J K L M N O P Q R S T U V W X Y Z # 

What's On Your Mind? Tabs (ver.1)

Ace Frehley
Rating:
0/5 (0 votes)
Tabs too difficult? Try these video lessons and learn fast.
                What's On Your Mind by Ace Frehley




  intro/verses
e:---------------------------------------------------------------------------|
B:---3--3----3--3----3--3----3--3----------3-------3-------3------3----------|
G:---2--2----2--2----2--2----2--2--------0-------0-------0------0------0----0|
D:---0--0----0--0----0--0----0--0--------------------------------------------|
A:---0--0----0--0----0--0----0--0------3-------2-------3------2------3----2--|
E:---------------------------------------------------------------------------|





e:---------------------------------------------------------------------------|
B:-----3--3----3--3----3--3----3--3-----------3-------3-------3-------3------|
G:-----2--2----2--2----2--2----2--2---------0-------0-------0-------0-------0|
D:-----0--0----0--0----0--0----0--0------------------------------------------|
A:-----0--0----0--0----0--0----0--0------3-------2-------3-------2-------3---|
E:---------------------------------------------------------------------------|




          "I cant express...."  Guitar 1
e:---------------------------------------------------------------------------|
B:-----------------3------------3------------3-----------3---------3--------3|
G:-----0--------2-----2------2-----2------2-----2-----2-----2---------2------|
D:-----------0---------------------------------------------------------------|
A:--2---------------------4------------2-----------0------------0--------0---|
E:---------------------------------------------------------------------------|


                      
                      
                      
e:-------------------|
B:--------3----------|
G:--2--------2-------|
D:-------------------|
A:-----0--------0----|
E:-------------------|




   "I cant express...." Guitar 2
e:---------------------------------------------------------------------------|
B:---------3------------3------------3------------3--------------------------|
G:------2-----2------2-----2------2-----2------2-----2-----------------------|
D:---0-----------------------------------------------------------------------|
A:----------------4------------2------------0-----------5-----5-----5---5--3-|
E:------------------------------------------------------3--0--3--0--3---3--2-|


          
          
          
e:-------|
B:-------|
G:----2--|
D:----2--|
A:-2--0--|
E:-0-----|




   "Maybe we could...."
e:---------------------------------------------------------------------------|
B:---------------------------------------------------------------------------|
G:---4-----------------5-----------------7-------------------------7---------|
D:---4--4-4-4-4-4-4----5--5-5-5-5-5-5----7--7-7-7-7-7-7------------7---------|
A:---2--2-2-2-2-2-2----3--3-3-3-3-3-3----5--5-5-5-5-5-5----5-5-5-5-5---3-3-3-|
E:---------------------------------------------------------------------------|





e:---------------------------------------------------------------------------|
B:--------------------------------------------------------------------3------|
G:--5------4-----------------5----------------7--------------------2--------2|
D:--5------4--4-4-4-4-4-4----5--5-5-5-5-5-5---7--7-7-7-7-7-7----0------------|
A:3-3------2--2-2-2-2-2-2----3--3-3-3-3-3-3---5--5-5-5-5-5-5-------------4---|
E:---------------------------------------------------------------------------|


                                       


e:------------------------------------|
B:--3--------3--------3---------------|
G:--------2--------2--------2-----2---|
D:-----0-----------------0------------|
A:--------------4--------------4------|
E:------------------------------------|




   "What's on your mind...."                 "Tell me...."
e:---------------------------------------------------------------------------|
B:-----------3--------------------------------------------5/8/5--5--8b--8b~~-|
G:-----------2----2----2----2----2---2-2-2---------------------7b------------|
D:-----------0----2----2----2----2---2-2-2-----------------------------------|
A:---5-4-2---0----0----0----0----0---0-0-0-----------------------------------|
E:---3-2-0-------------------------------------------------------------------|


                                                                   

         2x               outro
e:---------------------|------------------------------------------|
B:--5/8/5--5-----------|------------------------------------------|
G:-------7b----5-------|--11~--9~--11~--14~--14b~~--14b-14-12-14--|
D:---------------7~~---|------------------------------------------|
A:---------------------|------------------------------------------|
E:---------------------|------------------------------------------|
            
Tabs too difficult? Try these video lessons and learn fast.


comments powered by Disqus
↑ Back to top | Tablatures and chords are parodies/interpretations of the original songs. You may use it for private study, scholarship, research or language learning purposes only