» » »

Ozone Tabs (ver.1)

Artists:  A B C D E F G H I J K L M N O P Q R S T U V W X Y Z # 

Ozone Tabs (ver.1)

Ace Frehley
Rating:
0/5 (0 votes)

Hard to play? Try these video lessons and learn fast.
                Artist - Ace Frehley
Song - Ozone
Album- Ace Frehley






Intro/ Rythym 1
e:----------3~---------------------3~----------------------3~----------------|
B:----------3~---------------------3~----------------------3~------11-8--11--|
G:---2-0-2--0~--------------2-0-2--0~---------------2-0-2--0~----------------|
D:---2-0-2--0~--------------2-0-2--0~---------------2-0-2--0~----------------|
A:----------x----------------------x-----------------------x-------1-----1---|
E:----------3---3-3-3-3-3-3~-------3---3-3-3-3-3-3~--------3~---------3------|


             
             
             
e:----------|
B:8--11b~---|
G:----------|
D:----------|
A:----3-----|
E:3---------|




Play this with while rythym 1 
e:---------------------------------------------------------------------------|
B:----10b-10--8~------8-8-----10b-10--8~-----8-8----10b-10--8~-----8-8-----11|
G:-----------------\9-----9---------------\9-----9--------------\9-----9-----|
D:---------------------------------------------------------------------------|
A:---------------------------------------------------------------------------|
E:---------------------------------------------------------------------------|





e:---------------------------------------------------------------------------|
B:-8--11--8--11b~------12--14-14---15--14-14---12--14-14---15--14-----12-12--|
G:---------------------12--14-14---15--14-14---12--14-14---15--14-----12-12--|
D:---------------------12--14-14---15--14-14---12--14-14---15--14-----12-12--|
A:---------------------------------------------------------------------------|
E:---------------------------------------------------------------------------|


                                                               

                      2x
e:-------------------------------------------------------------|
B:14---15-15--14---12-12--14---15-15--14-----15-14-12--15-14-12|
G:14---15-15--14---12-12--14---15-15--14-----15-14-12--15-14-12|
D:14---15-15--14---12-12--14---15-15--14-----15-14-12--15-14-12|
A:-------------------------------------------------------------|
E:-------------------------------------------------------------|
            
Hard to play? Try these video lessons and learn fast. | Correct




comments powered by Disqus
↑ Back to top | Tablatures and chords are parodies/interpretations of the original songs. You may use it for private study, scholarship, research or language learning purposes only