>
 >
Rip It Out

Rip It Out Guitar Tabs

Ace Frehley - Rip It Out chords, tabs, tablatures, lyrics

Guitar lessons | Add/correct | Request | Top 50 tabs Artists:  A B C D E F G H I J K L M N O P Q R S T U V W X Y Z 0-9

Rip It Out Guitar Tabs – Ace Frehley

CD, Sheet music, Poster

Do you like Rip It Out? Share with your friends now
Bass TabsTabs
Key:
/    = slide up
\    = slide down
b    = bend (whole step)
b^   = bend (1/2 step)
b^^  = bend (1 1/2 steps)
pb   = pre-bend
r    = release-bend
t    = tap with righthand finger
h    = hammer-on
p    = pull-off
~    = Vibrato
*    = Natural Harmonic
#(#) = Trill
**   = Artificial Harmonic
x    = Dead notes (no pitch)
P.M. = Palm mute (- -> underneath indicates which notes)
(\)  = Dive w\bar
(/)  = Release w\bar
Tp   = Tap w\plectrum




Rhythm Fig. 1
Eb|-------------------------------------------------------------|
Bb|-------------------------------------------------------------|
Gb|----9----------------------7--6----2----4-4-4----2-4-4-4-----|
Db|----9----------------------7--6----2----4-4-4----2-4-4-4-----|
Ab|----7----------------------5--4----0----2-2-2----0-2-2-2-----|
Eb|----0--0--0--0--0--0--0--------------------------------------|


Rhythm Fig. 2
Eb|------3---------5--------------------------------------------|
Bb|------3---------5--------------------------------------------|
Gb|-------------------------------------------------------------|
Db|----5---------7----------------------------------------------|
Ab|----5---------7----------------------------------------------|
Eb|----3---------5----------------------------------------------|


Rhythm Fig. 3
Eb|-------------------------------------------------------------|
Bb|-------------------------------------------------------------|
Gb|---7-7-7----5-5----------------------------------------------|
Db|---7-7-7----5-5---5-4-5--------------------------------------|
Ab|---5-5-5----3-3---5-4-5--------------------------------------|
Eb|------------------3-2-3--------------------------------------|


Rhythm Fig. 4
Eb|-------------------------------------------------------------|
Bb|-------------------------------------------------------------|
Gb|-----9-9---9-9---------------9-------------------------------|
Db|-----7-7---7-7--------9--9---9---9--9------------------------|
Ab|-----0-0---0-0--------9--9---7---9--9------------------------|
Eb|----------------------7--7-------7--7------------------------|


Rhythm Fig. 5
Eb|-------------------------------------------------------------|
Bb|-------------------------------------------------------------|
Gb|-------------7--8--9--9--------------------------------------|
Db|-------------7--8--9--9--------------------------------------|
Ab|-------------5--6--7--7--------------------------------------|
Eb|----------------------0--------------------------------------|


Solo
Eb|---------12--------------------------------------------------|
Bb|------12----12-15b--15b~-----15b^^----15b^^-----15b^^--------|
Gb|--14b------------------------------------------------12h14p12|
Db|-------------------------------------------------------------|
Ab|-------------------------------------------------------------|
Eb|-------------------------------------------------------------|


Eb|---------------------------12--------------------------15b-15|
Bb|-----------------------12-----12--15b--15b~---12h14p12-------|
Gb|-14b--14b^^~~-----14b----------------------------------------|
Db|-------------------------------------------------------------|
Ab|-------------------------------------------------------------|
Eb|-------------------------------------------------------------|


Eb|-15b-15-15b-15-15b-15/17-17b-17b~~--17b^^--17b^^--------12---|
Bb|-----------------------------------------------------12----12|
Gb|-------------------------------------------------14b---------|
Db|-------------------------------------------------------------|
Ab|-------------------------------------------------------------|
Eb|-------------------------------------------------------------|


Eb|-------------------------------------------------------------|
Bb|--15b---15b~----4p2p0-h2h4-0h2h4--0h-2h-4p-0h2h4p0h2h4p0h2h4-|
Gb|-------------------------------------------------------------|
Db|-------------------------------------------------------------|
Ab|-------------------------------------------------------------|
Eb|-------------------------------------------------------------|


Eb|------------------------------12-----------------------------|
Bb|-4--5--7--8---10---11------12---12--15b--15b~-15b(17)(17)(17)|
Gb|-6b-7b-8b-10b-12b--13b--14b----------------------------------|
Db|-------------------------------------------------------------|
Ab|-------------------------------------------------------------|
Eb|-------------------------------------------------------------|


Eb|-----------------------19------------------19----------------|
Bb|(17)(17)(17)(17)----19---22-19--22b-----19---22--22b^^--22b^^|
Gb|-----------------21b------------------21b--------------------|
Db|-------------------------------------------------------------|
Ab|-------------------------------------------------------------|
Eb|-------------------------------------------------------------|


Riff 1
Eb|-------------------------------------------------------------|
Bb|-------------------------------------------------------------|
Gb|-----7-\-\-\---\---\---\-------------------------------------|
Db|-----7-\-\--\---\---\---\------------------------------------|
Ab|-------------------------------------------------------------|
Eb|-------------------------------------------------------------|


Outro Solo
Eb|----------10-------------------------------------------------|
Bb|-------10---13-10---13b-10h13p10-----------------------------|
Gb|----12b----------------------------10h-12b(14)(14)--10~~-----|
Db|-------------------------------------------------------------|
Ab|-------------------------------------------------------------|
Eb|-------------------------------------------------------------|


Eb|-------10----------------------------------------------------|
Bb|----10---13-10----13b-10h13p10-------------------------------|
Gb|-12b----------------------------12--10-----------------------|
Db|--------------------------------------12--10-----------------|
Ab|---------------------------------------------12p10\8~~-------|
Eb|-------------------------------------------------------------|


Eb|-------10-----------------------13b--13-13b--13--13b^^~~~----|
Bb|----10----13-10---13b-10h13p10-------------------------------|
Gb|-12b---------------------------------------------------------|
Db|-------------------------------------------------------------|
Ab|-------------------------------------------------------------|
Eb|-------------------------------------------------------------|


Eb|-------10----------------------------------------------------|
Bb|----10----13-10-13b-13-12-10---------------------------------|
Gb|-12b------------------------12-11-10-------------------------|
Db|--------------------------------------12-11-10---------------|
Ab|------------------------------------------------12-11-10-----|
Eb|---------------------------------------------------------13~~|


Eb|------10-----------------------------------------------------|
Bb|---10---13-10-13b(15)(15)(15)(15)(15)(15)(15)(15)(15)(15)(15)|
Gb|-12b---------------------------------------------------------|
Db|-------------------------------------------------------------|
Ab|-------------------------------------------------------------|
Eb|-------------------------------------------------------------|


Eb|-------------------------------------------------------------|
Bb|-12b------12b------------------------------------------------|
Gb|-12b-10~--12b-10~~--12b--12b-12b(14)(14)(14)(14)(14)(14)(14)-|
Db|-------------------------------------------------------------|
Ab|-------------------------------------------------------------|
Eb|-------------------------------------------------------------|





Comments


Popular Ace Frehley tabs & chords
Foxy Lady Bass Tabs
Do Ya Tabs
I'm In Need Of Love Tabs
Insane Tabs
New York Groove Tabs
Shot Full Of Rock Tabs
Snow Blind 2 Tabs
Space Bear Tabs
What's On Your Mind? Tabs
Wiped Out Tabs


Song lyrics



↑ Back to top | Tablatures and chords are parodies/interpretations of the original songs. You may use it for private study, scholarship, research or language learning purposes only
© 2014 AZChords.com Contact us | Privacy policy | DMCA | Add/correct tabs | Request tabs | Top 50 tabs