» » »

Ace Frehley, Fractured Quantum Bass tabs (ver.1)

Artists:  A B C D E F G H I J K L M N O P Q R S T U V W X Y Z # 

Fractured Quantum Bass tabs (ver.1)

Ace Frehley Tabs
 Rating:
4/5 (4 votes)
Fractured Quantum lessons Tabs too difficult? Try these video lessons and learn fast
                -------------------------------------------------------------------------------
-------------------------------------------------------------------------------


Tuning: Standard

The bass for this song is very simply, but accompanies the guitar quite well.
A beautiful song. Hopefully it's not too hard to understand.

Bass comes in at about 1:22 (Riff 1)
G|------------------------------------------------------|
D|------------------------------------------------------|
A|------------------------------------------------------|
E|-12----10----12----10----12---10----8--------8--------| x 2

1:58 (Riff 2)
G|------------------------------------------------------------|
D|------------------------------------------------------------|
A|---------------------------------3-5------------------------|
E|-8--7--5--5-33-3----8--7--5--3-5--------8--7--5--5-33-3-----|

(cont'd)
G|--------------------------------------------|
D|--------------------------------------------|
A|---------------3--5--5--3-5-3-5--3-5-3-5-3-5|
E|-8--7--5--3--5------------------------------|

2:18 (Riff 3)
G|--------------------------------------------|
D|--------------------------------------------|
A|--------------------------------------------|
E|-15----14----12----10----8----10----8----10-|

2:33 (Riff 4)
G|------------------------------------------|
D|------------------------------------------|
A|------------------------------------------|
E|---15----14----12----10----8----10--------|

2:48 (Chorus)
G|-----------------------------------------------------------|
D|-----------------------------------------------------------|
A|------------------55-5---------------------55-5------------|
E|-7-8--7-8-7-8-7-8---------7-8--7-8-7-8-7-8------023--------|

3:05 Riff 3 Again

3:33 (Riff 5)
G|------------------------------------------------------------------------------|
D|------------------------------------------------------------------------------|
A|------------------------------------------------------------------------------|
E|-12----10----12----10----8----10----8----10----15----14----12----10----8----10|

4:04 Chorus again (it's slightly altered here)
G|--------------------------------------------------------|
D|--------------------------------------------------------|
A|------------------55-5---------------------55-5--4h5----|
E|-7-8--7-8-7-8-7-8---------7-8--7-8-7-8-7-8--------------|

(cont'd)
G|--------------------------------------------------------|
D|--------------------------------------------------------|
A|------------------55-5---------------------55-5---------|
E|-7-8--7-8-7-8-7-8---------7-8--7-8-7-8-7-8------023-----|

4:34 Riff 3 until end

Some parts of the song the bass plays slides, some of the notes double,
or drops out for a while. Listen to the song to find where these parts are.

Thanks for reading, comment and rate! Have fun!

===============================================================================
            
Submit corrections

comments powered by Disqus
↑ Back to top | Ace Frehley Bass for Fractured Quantum. Lyrics for acoustic guitar and electric guitar. Tablatures and chords are parodies/interpretations of the original songs. You may use it for private study, scholarship, research or language learning purposes only