» » »

Ace Frehley, Fractured Quantum Tabs (ver.1)

Artists:  A B C D E F G H I J K L M N O P Q R S T U V W X Y Z # 

Fractured Quantum Tabs (ver.1)

Ace Frehley Tabs
 Rating:
4/5 (4 votes)
Fractured Quantum lessons Tabs too difficult? Try these video lessons and learn fast
1
                okay, so, ive been trying to find tabs for this song for a long time now, and couldnt
one, so i listened to it and got it and i wanted the people who cant listen to it or cant
bothered to be able to play this amazing song. It may not be perfect but it sounds 
just gonna do all the parts you can figure out where in the song they fit in and the
and the strumming technique:)
Tuning: Standard E,A,D,G,B,e
Album:Anomaly
t=strum tremolo
H= Hammer-on
S=Slide
if you didnt no % means repeat.
Intro bit:
e|---------------------------------------------------------------------|
B|---------------------------------------------------------------------|
G|--0-0--0-0---0-----0-----0--------------0-----0----0-----------------|
D|-2---2-----2---------4-----4---4----x3----0-----0------0---0h2---0---|
A|-----------------5-----5-----5---------3-----3----3--3---3-----------|
E|---------------------------------------------------------------------|x2

Middle bit:
e|------------------3-3----|----------------------2-2-|---------------3-3-|
B|------------------3-3----|----------------------3-3-|---------------3-3-|
G|---0-----------0--0-0----|----0---0-------------2-2-|---0---0-------0-0-|
D|--2---0---0-------0-0----|---2---0--------------0-0-|--2---0--0-----0-0-|
A|-3--2---0---3-----2-2-0-2|--3---2---0----0-2-3------|-3---2--0------2-2-|
E|------------------3-3----|--------------------------|-------------3-3-3-|

e|-----|-------------------2-2-2-2-2-2-2-2-2-2-2-2-2-2-2-2-2--------|
B|-----|-------------------3-3-3-3-3-3-3-3-3-3-3-3-3-3-3-3-3--------|
G|-----|---0---0--0--------2-0h2-2-2-0h2-2-2-0h2-2-2-0-0h2-2-t------|
D|-----|--2---0--0---------0-0-0-0-0-0-0-0-0-0-0-0-0-0-0-0-0--------|
A|-0-2-|-3---2--0---2-3---------------------------------------------|
E|-----|------------------------------------------------------------|

For the lead bit over the top i only no this bit i dont no the rest of it, including the 
sorry.
e|------10-10-12-12-10-10--------------------------------------------|
B|--s12--------------------------------------------------------------|
G|-------------------------------------------------------------------|
D|-------------------------------------------------------------------|
A|-------------------------------------------------------------------|
E|-------------------------------------------------------------------|

Arpeggio chord progression.
     G             G/F#          Em          D          C(add9)
e|-----------|-------------|-----------|-----------|-----------------|
B|-----------|-------------|-----------|---3---3--3|---3---3--3------|
G|--0---0--0-|-----0---0--0|--0---0---0|--2---2----|-----------------|
D|-0---0-----|----0---0----|-2---2-----|-0---0---0-|--2---2----------|
A|-----------|-------------|-----------|-----------|-3---3---3-------|
E|3---3--3---|---2---2---2-|0---0---0--|-----------|-----------------|
     D            C(add9)       D             G         D/F#
e|----------|--------------|----------|------------|-------------|
B|---3--3--3|---3----3---3-|----3--3-3|---8----8--8|--10--10--10-|
G|--2--2----|--------------|---2--2---|--0----0----|-0---0-------|
D|-0--0--0--|-2-----2------|--0--0--0-|------------|-------------|
A|----------|3----3----3---|----------|10---10--10-|9---9---9----|
E|----------|--------------|----------|------------|-------------|

     Em            D/G           C         D/G
e|----------|-------------|------------|-----------|--%-|-%-|
B|--8---8--8|-----7---7--7|----5---5--5|---7---7--7|--%-|-%-|
G|-0---0----|---0----0----|---0---0----|--0---0----|--%-|-%-|
D|----------|-------------|------------|-----------|--%-|-%-|
A|7---7---7-|-5-----5---5-|--3---3---3-|-5---5---5-|--%-|-%-|
E|----------|-------------|------------|-----------|--%-|-%-|

Strumming bit:
   G/B      C          D              G
e|--0-------0--------2-2-2------------3------------------|
B|--3-------1--------3-3-3------------3------------------|
G|--0-------0--------2-2-2------------0------------------|
D|--0-------2--------0-0-0---x2-------0------------------|
A|--2-------3---x3--------------------2------------------|
E|--0-------0--------------------0-2--3------------------|

Thats it, you can figure out which bit there repeated in and the strumming technique and stuff:)
            
Submit corrections

comments powered by Disqus
↑ Back to top | Ace Frehley Tabs for Fractured Quantum. Lyrics for acoustic guitar and electric guitar. 1 Tablatures and chords are parodies/interpretations of the original songs. You may use it for private study, scholarship, research or language learning purposes only