» » »

So Contagious Tabs (ver.2)

Artists:  A B C D E F G H I J K L M N O P Q R S T U V W X Y Z # 

So Contagious Tabs (ver.2)

Acceptance
Rating:
3/5 (3 votes)

Hard to play? Try these video lessons and learn fast.
                (Intro)
The other guy had the first guitar right, but the second was way off. so here it is.
 *note* Both guitars are played at the same exact time, and each note is timed perfectly with the other
Guitar 1:
e|-------------------------------------------------------|
B|-------------------------------------------------------|
G|------------------/5-5-5-5-5---------------------------|
D|--5-6-6-6-6------------------5-5-5---------------------|  Repeat for verse
A|------------4-4-4--------------------------------------|
D|-------------------------------------------------------|

Guitar 2:
e|-------------------------------------------------------|
B|-------------------------------------------------------|
G|-------------------------------------------------------|
D|-------------------------------------------------------|  Repeat for verse
A|--9-9-9-9-9-------0-0-0-0-0-7-7-7----------------------|
D|------------0-0-0--------------------------------------|

If you dont believe me, then listen to each e
arphone seperately. 
            
Hard to play? Try these video lessons and learn fast. | Correct




comments powered by Disqus
↑ Back to top | Tablatures and chords are parodies/interpretations of the original songs. You may use it for private study, scholarship, research or language learning purposes only