» » »

Acceptance, So Contagious Bass tabs (ver.1)

Artists:  A B C D E F G H I J K L M N O P Q R S T U V W X Y Z # 

So Contagious Bass tabs (ver.1)

Acceptance Tabs
Rating:
5/5 (2 votes)
So Contagious lessons Tabs too difficult? Try these video lessons and learn fast
                "So Contagious"
-Acceptance
~Phantoms

Verse (0:11)
G|----------------------------------------------------||
D|-3333------6666-------------------------------------||
A|------4444------6666--------------------------------|| x4
E|----------------------------------------------------||


(0:31)
G|----------------------------------------------------||
D|----------------------------------------------------||
A|-4~-------------------------------------------------|| x1
E|----------------------------------------------------||


1st Chorus(0:42)
G|----------------------------------------------------||
D|----------------------------------------------------||
A|-33333333-------------------------------------------|| x1
E|----------22222222----------------------------------||


Regular Chorus (0:48)
G|----------------------------------------------------||
D|----------------------------------------------------||
A|------------------33333333--------------------------|| x1
E|-4444444444444444---------22222222------------------||


Post-Chorus(0:59)
G|----------------------------------------------------||
D|----------------------------------------------------||
A|-8~\4~--6~------------------------------------------||
E|------4~--------------------------------------------||


Verse (1:04)
G|----------------------------------------------------||
D|-3333------6666-------------------------------------||
A|------4444------6666--------------------------------|| x4
E|----------------------------------------------------||


(1:21)
G|----------------------------------------------------||
D|----------------------------------------------------||
A|-4~-------------------------------------------------|| x1
E|----------------------------------------------------||


Chorus (1:26)
G|----------------------------------------------------||
D|----------------------------------------------------||
A|------------------33333333--------------------------|| x2
E|-4444444444444444---------22222222------------------||


Bridge (1:51)
G|----------------------------------------------------||
D|-------------------3333333333333333-----------------||
A|--4444444444444444----------------------------------||
E|----------------------------------------------------||

G|----------------------------------------------------||
D|------------------66666666--------------------------||
A|-4444444444444444----------66666666-----------------||
E|----------------------------------------------------||


Chorus (2:22)[last time just fade out on 2~]
G|----------------------------------------------------||
D|----------------------------------------------------||
A|-----------------33333333---------------------------|| x3
E|-4444444444444444---------22222222------------------||

Okay hope that works... it may be wrong octave in some places but the notes are right.

~shiek
            

comments powered by Disqus
↑ Back to top | Acceptance Bass for So Contagious. Lyrics for acoustic guitar and electric guitar. Tablatures and chords are parodies/interpretations of the original songs. You may use it for private study, scholarship, research or language learning purposes only