» » »

Acceptance, So Contagious Tabs (ver.1)

Artists:  A B C D E F G H I J K L M N O P Q R S T U V W X Y Z # 

So Contagious Tabs (ver.1)

Acceptance Tabs
Rating:
4/5 (5 votes)
So Contagious lessons Tabs too difficult? Try these video lessons and learn fast
                Acceptance
Phantoms
Drop Db (C#)
Db-Ab-Db-Gb-Bb-eb
(C#-G#-C#-F#-A#-D#)

-Intro-
Gtr 1- Clean
Eb|----------------------------------------|
Bb|----------------------------------------|
Gb|----------------------------------------|
Db|------------------------/11-11-11-11-11-|
Ab|-11-12-12-12-12--5-5-5------------------|
Db|----------------------------------------|
Gtr 2- Clean
Eb|----------------------------------------|
Bb|----------------------------------------|
Gb|----------------------------------------|
Db|----------------------------------------|
Ab|-9--9--9--9--9-----------0--0--0--0--0--|
Db|-----------------0-0-0------------------|

-Verse- x5
Gtr 1
Eb||------------------------------------------------------||--------------|
Bb||o----------------------------------------------------o||--------------|
Gb||------------------------------------------------------||--------------|
Db||----------------------------------/11-11-11-11-11-11--||--------------|
Ab||o-11-11-11-11-12-12-12-12--5-5-5---------------------o||--11-11-11-12-|
Db||------------------------------------------------------||--------------|
Gtr 2
Eb||------------------------------------------------------||--------------|
Bb||o----------------------------------------------------o||--------------|
Gb||------------------------------------------------------||--------------|
Db||------------------------------------------------------||--------------|
Ab||o-7--7--7--9--9--9--9--9-----------0--0--0--0--0--0--o||--7--7--7--9--|
Db||---------------------------0-0-0----------------------||--------------|
“Oh no, this couldn’t be more unexpected.
And I can tell you I’ve been moving in soo slow.
Don’t let it throw you off too far.
‘Cause I’ll be runnin’ right behind you...”

Gtr 1
Eb|---------------------------------|
Bb|---------------------------------|
Gb|---------------------------------|
Db|---------------------------------|
Ab|-0-0-0-0-0-0-0-0-0-0-0-0-0-0-0-0-|
Db|---------------------------------|
“Could this be out of line?
Could this be out of line...”

-Chorus-
Gtr 1,2- Distortion
Eb|-------------------------------------------------|
Bb|-------------------------------------------------|
Gb|-6--6--6--6--6--6--6--6--7--7--7--7--7--7--7--7--|
Db|-6--6--6--6--6--6--6--6--7--7--7--7--7--7--7--7--|
Ab|-4--4--4--4--4--4--4--4--5--5--5--5--5--5--5--5--|
Db|-------------------------------------------------|
“To say you’re the only one, breakin’ me down like this..”

Gtr 1
Eb|-------------------------------------------------------------|
Bb|-10-10-10-10-10-12-12-12-12-12-10-10-10-10-10-15-15-15-17-17-|
Gb|-9--9--9--9--9--9--9--9--9--9--9--9--9--9--9--14-14-14-14-14-|
Db|-------------------------------------------------------------|
Ab|-------------------------------------------------------------|
Db|-------------------------------------------------------------|
Gtr 2
Eb|-------------------------------------------------------------|
Bb|-------------------------------------------------------------|
Gb|-9---9---9---9---9---9---9---9---9---9---9---9---9---9--9--9-|
Db|-7---7---7---7---7---7---7---7---7---7---7---7---7---7--7--7-|
Ab|-7---7---7---7---7---7---7---7---7---7---7---7---7---7--7--7-|
Db|-7---7---7---7---7---7---7---7---7---7---7---7---7---7--7--7-|
“You’re the only one, I would take a shine on”

Gtr 1
Eb|------------17~~-----------17~~-----|
Bb|-------15~~-----------15~~----------|
Gb|--14~~-----------14~~---------------|
Db|------------------------------------|
Ab|------------------------------------|
Db|------------------------------------|
Gtr 2
Eb|------------------------------------|
Bb|------------------------------------|
Gb|-6-6-6-6-6-6-6-6-7-7-7-7-7-7-7-7~~~-|
Db|-6-6-6-6-6-6-6-6-7-7-7-7-7-7-7------|
Ab|-4-4-4-4-4-4-4-4-5-5-5-5-5-5-5-5~~~-|
Db|------------------------------------|
“Keep me hangin’ on..  So Contagiously”

-Verse 2-
Gtr 1- Clean
Eb|----------------------------------|
Bb|----------------------------------|
Gb|----------------------------------|
Db|----------------------------------|
Ab|-12-12-12--5-5-5--/11-11-11-11-11-|
Db|----------------------------------|
Gtr 2- Clean
Eb|----------------------------------|
Bb|----------------------------------|
Gb|----------------------------------|
Db|----------------------------------|
Ab|-9--9--9-----------0--0--0--0--0--|
Db|-----------0-0-0------------------|
“When I’m around you, I’m predictable”

Gtr 1
Eb||------------------------------------------------------||--------------|
Bb||o----------------------------------------------------o||--------------|
Gb||------------------------------------------------------||--------------|
Db||----------------------------------/11-11-11-11-11-11--||--------------|
Ab||o-11-11-11-11-12-12-12-12--5-5-5---------------------o||--11-11-11-12-|
Db||------------------------------------------------------||--------------|
Gtr 2
Eb||------------------------------------------------------||--------------|
Bb||o----------------------------------------------------o||--------------|
Gb||------------------------------------------------------||--------------|
Db||------------------------------------------------------||--------------|
Ab||o-7--7--7--9--9--9--9--9-----------0--0--0--0--0--0--o||--7--7--7--9--|
Db||---------------------------0-0-0----------------------||--------------|
“Cause I believe in lovin’ you at first sight.
I know it’s crazy but I’m hopin’ to.
To take a hold of you...”

-Chorus-
Gtr 1- Distortion
Eb|-------------------------------------------------------------|
Bb|-10-10-10-10-10-12-12-12-12-12-10-10-10-10-10-15-15-15-17-17-|
Gb|-9--9--9--9--9--9--9--9--9--9--9--9--9--9--9--14-14-14-14-14-|
Db|-------------------------------------------------------------|
Ab|-------------------------------------------------------------|
Db|-------------------------------------------------------------|
Gtr 2- Distortion
Eb|-------------------------------------------------------------|
Bb|-------------------------------------------------------------|
Gb|-9---9---9---9---9---9---9---9---9---9---9---9---9---9--9--9-|
Db|-7---7---7---7---7---7---7---7---7---7---7---7---7---7--7--7-|
Ab|-7---7---7---7---7---7---7---7---7---7---7---7---7---7--7--7-|
Db|-7---7---7---7---7---7---7---7---7---7---7---7---7---7--7--7-|
“Could this be out of line, could this be out of line.”

Gtr 1
Eb|------------17~~-----------17~~--|
Bb|-------15~~-----------15~~-------|
Gb|--14~~-----------14~~------------|
Db|---------------------------------|
Ab|---------------------------------|
Db|---------------------------------|
Gtr 2
Eb|---------------------------------|
Bb|---------------------------------|
Gb|-6-6-6-6-6-6-6-6-7-7-7-7-7-7-7-7-|
Db|-6-6-6-6-6-6-6-6-7-7-7-7-7-7-7-7-|
Ab|-4-4-4-4-4-4-4-4-5-5-5-5-5-5-5-5-|
Db|---------------------------------|
“To say you’re the only one, breaking me down like this”

Gtr 1
Eb|-------------------------------------------------------------|
Bb|-10-10-10-10-10-12-12-12-12-12-10-10-10-10-10-15-15-15-17-17-|
Gb|-9--9--9--9--9--9--9--9--9--9--9--9--9--9--9--14-14-14-14-14-|
Db|-------------------------------------------------------------|
Ab|-------------------------------------------------------------|
Db|-------------------------------------------------------------|
Gtr 2
Eb|-------------------------------------------------------------|
Bb|-------------------------------------------------------------|
Gb|-9---9---9---9---9---9---9---9---9---9---9---9---9---9--9--9-|
Db|-7---7---7---7---7---7---7---7---7---7---7---7---7---7--7--7-|
Ab|-7---7---7---7---7---7---7---7---7---7---7---7---7---7--7--7-|
Db|-7---7---7---7---7---7---7---7---7---7---7---7---7---7--7--7-|
“You’re the only one, I would take a shine on”

Gtr 1
Eb|------------17~~-----------17~~-------------|
Bb|-------15~~-----------15~~------15-15-14-14-|
Gb|--14~~-----------14~~-----------------------|
Db|--------------------------------------------|
Ab|--------------------------------------------|
Db|--------------------------------------------|
Gtr 2
Eb|--------------------------------------------|
Bb|--------------------------------------------|
Gb|--6-6-6-6-6-6-6-6--7--7--7--7---------------|
Db|--6-6-6-6-6-6-6-6--7--7--7--7--7--7--7--7---|
Ab|--4-4-4-4-4-4-4-4--5--5--5--5--7--7--7--7---|
Db|-------------------------------7--7--7--7---|
“Keep me hangin’ on..  So Contagiously”

-Interlude-
Keyboard/Gtr 1
Eb|------------------------------------|------------------------------------|
Bb|------------------------------------|----15---17-15--------15---17-15----|
Gb|------------------------------------|-14---14-------16--14---14-------16-|
Db|------------------------------------|------------------------------------|
Ab|------------------------------------|------------------------------------|
Db|------------------------------------|------------------------------------|
Gtr 2- Clean
Eb|------------------------------------|------------------------------------|
Bb|------------------------------------|------------------------------------|
Gb|------6------6------6------6------6-|-----9------9------9------9------9--|
Db|----7------7------7------7------7---|---7------7------7------7------7----|
Ab|--5------5------5------5------5-----|-5------5------5------5------5------|
Db|------------------------------------|------------------------------------|
“Oh, you’re everything I’m wanting.
Come to think of it I’m achin’...”

Keyboard
Eb|------------------------------------|------------------------------------|
Bb|------------------------------------|-------15--------17---15------------|
Gb|------------------------------------|--14--------14-------------16---14--|
Db|------------------------------------|------------------------------------|
Ab|------------------------------------|------------------------------------|
Db|------------------------------------|------------------------------------|
Gtr 2
Eb|------------------------------------|------------------------------------|
Bb|------------------------------------|------------------------------------|
Gb|------6------6------6------6------6-|-----9------9------9------9------9--|
Db|----7------7------7------7------7---|---7------7------7------7------7----|
Ab|--5------5------5------5------5-----|-5------5------5------5------5------|
Db|------------------------------------|------------------------------------|
Gtr 1
Eb|------------------------------------|------------------------------------|
Bb|------------------------------------|------------------------------------|
Gb|------------------------------------|------------------------------------|
Db|------------------------------------|-/11-11-11-11-11--6--6--6--6--7-----|
Ab|------------------------------------|--0--0--0--0--0---7--7--7--9--9-----|
Db|------------------------------------|------------------------------------|
“On account of my transgression.
Will you welcome this confession...”

Keyboard
Eb||-------------------------------------------||
Bb||o----15----17--15---------15----17--15----o||
Gb||--14----14--------16---14----14--------16--||
Db||-------------------------------------------||
Ab||o-----------------------------------------o||
Db||-------------------------------------------||
“Could this be out of line, could this be out of line
(out of like, breaking me down, hanging on, breaking me down like this)
To say you’re the only one, breakin’ me down like this.”

Gtr 1- Distortion
Eb|-------------------------------------------------------------|
Bb|-10-10-10-10-10-12-12-12-12-12-10-10-10-10-10-15-15-15-17-17-|
Gb|-9--9--9--9--9--9--9--9--9--9--9--9--9--9--9--14-14-14-14-14-|
Db|-------------------------------------------------------------|
Ab|-------------------------------------------------------------|
Db|-------------------------------------------------------------|
Gtr 2- Distortion
Eb|-------------------------------------------------------------|
Bb|-------------------------------------------------------------|
Gb|-9---9---9---9---9---9---9---9---9---9---9---9---9---9--9--9-|
Db|-7---7---7---7---7---7---7---7---7---7---7---7---7---7--7--7-|
Ab|-7---7---7---7---7---7---7---7---7---7---7---7---7---7--7--7-|
Db|-7---7---7---7---7---7---7---7---7---7---7---7---7---7--7--7-|
“You’re the only one, I would take a shine on”

Gtr 1
Eb|------------17~~-----------17~~--|
Bb|-------15~~-----------15~~-------|
Gb|--14~~-----------14~~------------|
Db|---------------------------------|
Ab|---------------------------------|
Db|---------------------------------|
Gtr 2
Eb|---------------------------------|
Bb|---------------------------------|
Gb|-6-6-6-6-6-6-6-6-7-7-7-7-7-7-7-7-|
Db|-6-6-6-6-6-6-6-6-7-7-7-7-7-7-7-7-|
Ab|-4-4-4-4-4-4-4-4-5-5-5-5-5-5-5-5-|
Db|---------------------------------|
“Keep me hangin’ on.. So Contagiously”

Gtr 1
Eb|-------------------------------------------------------------|
Bb|-10-10-10-10-10-12-12-12-12-12-10-10-10-10-10-15-15-15-17-17-|
Gb|-9--9--9--9--9--9--9--9--9--9--9--9--9--9--9--14-14-14-14-14-|
Db|-------------------------------------------------------------|
Ab|-------------------------------------------------------------|
Db|-------------------------------------------------------------|
Gtr 2
Eb|-------------------------------------------------------------|
Bb|-------------------------------------------------------------|
Gb|-9---9---9---9---9---9---9---9---9---9---9---9---9---9--9--9-|
Db|-7---7---7---7---7---7---7---7---7---7---7---7---7---7--7--7-|
Ab|-7---7---7---7---7---7---7---7---7---7---7---7---7---7--7--7-|
Db|-7---7---7---7---7---7---7---7---7---7---7---7---7---7--7--7-|
“Could this be out of line, could this be out of line.”

Gtr 1
Eb|------------17~~-----------17~~--|
Bb|-------15~~-----------15~~-------|
Gb|--14~~-----------14~~------------|
Db|---------------------------------|
Ab|---------------------------------|
Db|---------------------------------|
Gtr 2
Eb|---------------------------------|
Bb|---------------------------------|
Gb|-6-6-6-6-6-6-6-6-7-7-7-7-7-7-7-7-|
Db|-6-6-6-6-6-6-6-6-7-7-7-7-7-7-7-7-|
Ab|-4-4-4-4-4-4-4-4-5-5-5-5-5-5-5-5-|
Db|---------------------------------|
“To say you’re the only one, breaking me down like this”
(TO SAY YOU’RE THE ONLY ONE, BREAKING ME DOWN LIKE THIS)

Gtr 1
Eb|-------------------------------------------------------------|
Bb|-10-10-10-10-10-12-12-12-12-12-10-10-10-10-10-15-15-15-17-17-|
Gb|-9--9--9--9--9--9--9--9--9--9--9--9--9--9--9--14-14-14-14-14-|
Db|-------------------------------------------------------------|
Ab|-------------------------------------------------------------|
Db|-------------------------------------------------------------|
Gtr 2
Eb|-------------------------------------------------------------|
Bb|-------------------------------------------------------------|
Gb|-9---9---9---9---9---9---9---9---9---9---9---9---9---9--9--9-|
Db|-7---7---7---7---7---7---7---7---7---7---7---7---7---7--7--7-|
Ab|-7---7---7---7---7---7---7---7---7---7---7---7---7---7--7--7-|
Db|-7---7---7---7---7---7---7---7---7---7---7---7---7---7--7--7-|
“You’re the only one, I would take a shine on”

Gtr 1
Eb|------------17~~-----------17~~---------------|
Bb|-------15~~-----------15~~------15-15-14-14~~-|
Gb|--14~~-----------14~~-------------------------|
Db|----------------------------------------------|
Ab|----------------------------------------------|
Db|----------------------------------------------|
Gtr 2
Eb|----------------------------------------------|
Bb|----------------------------------------------|
Gb|--6-6-6-6-6-6-6-6--7--7--7--7--7--7--7--7~~~~-|
Db|--6-6-6-6-6-6-6-6--7--7--7--7--7--7--7--7-----|
Ab|--4-4-4-4-4-4-4-4--5--5--5--5--5--5--5--5~~~~-|
Db|----------------------------------------------|
“Keep me hangin’ on..  So Contagiously”
(KEEP ME HANGIN’ ON..  SO CONTAGIOUSLY...)
            
Submit corrections

comments powered by Disqus
↑ Back to top | Acceptance Tabs for So Contagious. Lyrics for acoustic guitar and electric guitar. Tablatures and chords are parodies/interpretations of the original songs. You may use it for private study, scholarship, research or language learning purposes only