>
 >
Metal Heart

Metal Heart Bass Tabs

Accept - Metal Heart chords, tabs, tablatures, lyrics

Guitar lessons | Add/correct | Request | Top 50 tabs Artists:  A B C D E F G H I J K L M N O P Q R S T U V W X Y Z 0-9

Metal Heart Bass Tabs – Accept

CD, Sheet music, Poster

Do you like Metal Heart? Share with your friends now
Bass TabsTabsTabs v2
                                 Metal-Heart                                    


Bass
     W                H        Q       W                H        Q     
G||---------------------------------|---------------------------------|
D||---------------------------------|---------------------------------|
A||---------------------------------|---------------------------------|
E||---------------------------------|---------------------------------|


  H        H        H        Q     
----------------------------------|
----------------------------------|
--5--------L--------3--------L----|
----------------------------------|


  Q    E.  E.  E.  E.  E.  E.  Q.     H         
-----------------------------------------------|
-----------------------------------------------|
--L----7---L---L---3---L---L---2------L--------|
-----------------------------------------------|


  H        H        H.              Q    H        H        H         
---------------------------------|----------------------------------|
---------------------------------|----------------------------------|
--7--------3--------7------------|--L----7--------3--------7--------|
---------------------------------|----------------------------------|


  H        H        H        Q     
----------------------------------|
----------------------------------|
--5--------L--------3--------L----|
----------------------------------|


  Q    E.  E.  E.  E.  E.  E.  Q.     H           H         
-----------------------------------------------|-----------|
-----------------------------------------------|-----------|
--L----7---7---7---3---3---3---2------L--------|--L--------|
-----------------------------------------------|-----------|


  E  S S E  S S E  S S E  S S    E  S S E  S S E  S S E  S S  
------------------------------|------------------------------|
--5---------------------------|--6---------------------------|
-----3-3-3--3-3-3--3-3-3--3-3-|-----3-3-3--3-3-3--3-3-3--3-3-|
------------------------------|------------------------------|


  E  S S E  S S E  S S E  S S    E  S S E  S S E  E  Q     
------------------------------|---------------------------|
--5---------------------------|--6-------------5----------|
-----3-3-3--3-3-3--3-3-3--3-3-|-----3-3-3--3-3------------|
------------------------------|---------------------------|


  E  S S E  S S E  S S E  S S    E  S S E  S S E  S S E  S S  
------------------------------|------------------------------|
--5---------------------------|--6---------------------------|
-----3-3-3--3-3-3--3-3-3--3-3-|-----3-3-3--3-3-3--3-3-3--3-3-|
------------------------------|------------------------------|


  E  S S E  S S E  S S E  S S    E  S S E  S S E  E  Q     
------------------------------|---------------------------|
--5---------------------------|--6-------------5----------|
-----3-3-3--3-3-3--3-3-3--3-3-|-----3-3-3--3-3------------|
------------------------------|---------------------------|


  E  S S E  S S E  S S E  S S    E  S S E  S S E  S S E  S S  
------------------------------|------------------------------|
------------------------------|------------------------------|
--3--3-3-3--3-3-3--3-3-3--3-3-|--3--3-3-3--3-3-3--3-3-3--3-3-|
------------------------------|------------------------------|


  E  S S E  S S E  S S E  S  S    H        E  Q    E   
-------------------------------|----------------------|
-------------------------------|----------------------|
--3--3-3-3--3-3-3--3-3-3-------|----------------------|
--------------------------3h-4-|--4--------3----------|


  E  S S E  S S E  S S E  S S    E  S S E  S S E  S S E  S S  
------------------------------|------------------------------|
------------------------------|------------------------------|
--3--3-3-3--3-3-3--3-3-3--3-3-|--3--3-3-3--3-3-3--3-3-3--3-3-|
------------------------------|------------------------------|


  Q    H.              Q    H.              E  S S E  S S E  S S E  S S  
--------------------|--------------------|------------------------------|
--------------------|--------------------|------------------------------|
--3-----------------|--6-----------------|--3--3-3-3--3-3-3--3-3-3--3-3-|
-------4------------|-------6------------|------------------------------|


  E  S S E  S S E  S S E  S S    E  S S E  S S E  S S E  S  S  
------------------------------|-------------------------------|
------------------------------|-------------------------------|
--3--3-3-3--3-3-3--3-3-3--3-3-|--3--3-3-3--3-3-3--3-3-3-------|
------------------------------|--------------------------3h-4-|


  H        E  Q    E     E  S S E  S S E  S S E  S S  
----------------------|------------------------------|
----------------------|------------------------------|
----------------------|--3--3-3-3--3-3-3--3-3-3--3-3-|
--4--------3----------|------------------------------|


  E  S S E  S S E  S S E  S S    Q    H.              W                 
------------------------------|--------------------|-------------------|
------------------------------|--------------------|-------------------|
--3--3-3-3--3-3-3--3-3-3--3-3-|--3-----------------|-------------------|
------------------------------|-------4------------|--3----------------|


  E  S E  S E  E  S S E  E     E  S E  S E  E  S S E  E   
----------------------------|----------------------------|
----------------------------|----------------------------|
--0---------0--0--0-0-0--0--|--3----2----3--0--0-0-0--0--|
-------3--------------------|----------------------------|


  E  S E  S E  Q    Q       Q    Q    S S S S S  E.   
-------------------------|---------------------------|
-------------------------|---------------------------|
--7----5----8--7---------|---------------------------|
--------------------5----|--3----L----3-3-0-0-3S-4---|


  E  S E  S E  E  S S E  E     E  S E  S E  E  S S E  E   
----------------------------|----------------------------|
----------------------------|----------------------------|
--0---------0--0--0-0-0--0--|--3----2----3--0--0-0-0--0--|
-------3--------------------|----------------------------|


  E  S E  S E  Q    Q       W                   E  S S E  S S E  S S E  S S  
-------------------------|-------------------|------------------------------|
-------------------------|-------------------|--5---------------------------|
--7----5----8--7---------|-------------------|-----3-3-3--3-3-3--3-3-3--3-3-|
--------------------5----|--3----------------|------------------------------|


  E  S S E  S S E  S S E  S S    E  S S E  S S E  S S E  S S  
------------------------------|------------------------------|
--6---------------------------|--5---------------------------|
-----3-3-3--3-3-3--3-3-3--3-3-|-----3-3-3--3-3-3--3-3-3--3-3-|
------------------------------|------------------------------|


  E  S S E  S S E  E  Q       E  S S E  S S E  S S E  S S  
---------------------------|------------------------------|
--6-------------5----------|------------------------------|
-----3-3-3--3-3------------|--3--3-3-3--3-3-3--3-3-3--3-3-|
---------------------------|------------------------------|


  E  S S E  S S E  S S E  S S    Q    H.              Q    H.            
------------------------------|--------------------|--------------------|
------------------------------|--------------------|--------------------|
--3--3-3-3--3-3-3--3-3-3--3-3-|--3-----------------|--6-----------------|
------------------------------|-------4------------|-------6------------|


  E  S S E  S S E  S S E  S S    E  S S E  S S E  S S E  S S  
------------------------------|------------------------------|
------------------------------|------------------------------|
--3--3-3-3--3-3-3--3-3-3--3-3-|--3--3-3-3--3-3-3--3-3-3--3-3-|
------------------------------|------------------------------|


  Q    H.              W                   E  S E  S E  E  S S E  E   
--------------------|-------------------|----------------------------|
--------------------|-------------------|----------------------------|
--3-----------------|-------------------|--0---------0--0--0-0-0--0--|
-------4------------|--3----------------|-------3--------------------|


  E  S E  S E  E  S S E  E     E  S E  S E  Q    Q     
----------------------------|-------------------------|
----------------------------|-------------------------|
--3----2----3--0--0-0-0--0--|--7----5----8--7---------|
----------------------------|--------------------5----|


  Q    Q    S S S S S  E.     E  S E  S E  E  S S E  E   
---------------------------|----------------------------|
---------------------------|----------------------------|
---------------------------|--0---------0--0--0-0-0--0--|
--3----L----3-3-0-0-3S-4---|-------3--------------------|


  E  S E  S E  E  S S E  E     E  S E  S E  Q    Q       W                 
----------------------------|-------------------------|-------------------|
----------------------------|-------------------------|-------------------|
--3----2----3--0--0-0-0--0--|--7----5----8--7---------|-------------------|
----------------------------|--------------------5----|--3----------------|


  E  S S E  S S E  S S E  S S    E  S S E  S S E  S S E  S S  
------------------------------|------------------------------|
------------------------------|------------------------------|
------------------------------|------------------------------|
--0--0-0-0--0-0-0--0-0-0--0-0-|--0--0-0-0--0-0-0--0-0-0--0-0-|


  E  S S E  S S E  S S E  S S    E  S S E  S S E  S S E  S S  
------------------------------|------------------------------|
------------------------------|------------------------------|
------------------------------|--3--3-3-3--3-3-2--2-2-6--6-6-|
--0--0-0-0--0-0-0--0-0-0--0-0-|------------------------------|


  E  S S E  S S E  S S E  S S    E  S S E  S S E  S S E  S S  
------------------------------|------------------------------|
------------------------------|------------------------------|
------------------------------|------------------------------|
--0--0-0-0--0-0-0--0-0-0--0-0-|--0--0-0-0--0-0-0--0-0-0--0-0-|


  Q    H.              Q    H.              W                 
--------------------|--------------------|-------------------|
--2-----------------|--5-----------------|-------------------|
-------3------------|-------5------------|-------------------|
--------------------|--------------------|-------------------|


  E  S S E  S S E  S S E  S S    E  S S E  S S E  S S E  S S  
------------------------------|------------------------------|
------------------------------|------------------------------|
--3--3-3-3--3-3-3--3-3-3--3-3-|------------------------------|
------------------------------|--3--3-3-3--3-3-3--3-3-3--3-3-|


  E  S S E  S S E  S S E  S S    E  S S E  S S E  S S E  S S  
------------------------------|------------------------------|
------------------------------|------------------------------|
--3--3-3-3--3-3-3--3-3-3--3-3-|------------------------------|
------------------------------|--3--3-3-3--3-3-3--3-3-3--3-3-|


  E  S S E  S S E  S S E  S S    E  S S E  S S E  S S E  S S  
------------------------------|------------------------------|
------------------------------|------------------------------|
--3--3-3-3--3-3-3--3-3-3--3-3-|------------------------------|
------------------------------|--3--3-3-3--3-3-3--3-3-3--3-3-|


  E  S S E  S S E  S S E  S S    E  S S E  S S E  S S E  S S  
------------------------------|------------------------------|
------------------------------|------------------------------|
--3--3-3-3--3-3---------------|--6--6-6-6--6-6-6--6-6-6--6-6-|
----------------6--6-6-6--6-6-|------------------------------|


  E  S S E  S S E  S S E  S S    E  S S E  S S E  S S E  S S  
------------------------------|------------------------------|
------------------------------|------------------------------|
------------------------------|------------------------------|
--6--6-6-6--6-6-6--6-6-7--7-7-|--8--8-8-8--8-8-8--8-8-8--8-8-|


  W                   W                   W                   W                 
-------------------|-------------------|-------------------|-------------------|
-------------------|-------------------|-------------------|-------------------|
-------------------|-------------------|-------------------|-------------------|
--3----------------|--L----------------|-------------------|-------------------|


  H.           S.    W                   W                   W                 
------------------|-------------------|-------------------|-------------------|
------------------|-------------------|-------------------|-------------------|
------------------|-------------------|-------------------|-------------------|
------------------|-------------------|-------------------|-------------------|


  W                   W                   W                   W                 
-------------------|-------------------|-------------------|-------------------|
-------------------|-------------------|-------------------|-------------------|
-------------------|-------------------|-------------------|-------------------|
-------------------|-------------------|-------------------|-------------------|


  W                   W                   W                   W                 
-------------------|-------------------|-------------------|-------------------|
-------------------|-------------------|-------------------|-------------------|
-------------------|-------------------|-------------------|-------------------|
-------------------|-------------------|-------------------|-------------------|


  W                   E  S S E  S S E  S S E  S S  
-------------------|------------------------------|
-------------------|------------------------------|
-------------------|--3--3-3-3--3-3-3--3-3-3--3-3-|
-------------------|------------------------------|


  E  S S E  S S E  S S E  S S    E  S S E  S S E  S S E  S S  
------------------------------|------------------------------|
------------------------------|------------------------------|
------------------------------|--3--3-3-3--3-3---------------|
--3--3-3-3--3-3-3--3-3-3--3-3-|----------------6--6-6-6--6-6-|


  E  S S E  S S E  S S E  S S    E  S S E  S S E  S S E  S S  
------------------------------|------------------------------|
------------------------------|------------------------------|
--6--6-6-6--6-6-6--6-6-6--6-6-|------------------------------|
------------------------------|--6--6-6-6--6-6-6--6-6-7--7-7-|


  E  S S E  S S E  S S E  S S    E  S S E  S S E  S S E  S S  
------------------------------|------------------------------|
------------------------------|------------------------------|
------------------------------|------------------------------|
--8--8-8-8--8-8-8--8-8-8--8-8-|--3--3-3----3-3-3--3-3----3-3-|


  E  S S E  S S E  S S E  S S    S S E  S S E  S S E  S S E   
------------------------------|------------------------------|
------------------------------|------------------------------|
------------------------------|------------------------------|
--3--3-3----3-3-3--3-3----3-3-|--3-3-3--3-3-3--3-3-3--3-3-3--|


  S S S S S S S S S S S S S S S S    E  S E  S E  E  S S E  E   
----------------------------------|----------------------------|
----------------------------------|----------------------------|
----------------------------------|--0---------0--0--0-0-0--0--|
--3-3-3-3-3-3-3-3-3-3-3-3-3-3-3-3-|-------3--------------------|


  E  S E  S E  E  S S E  E     E  S E  S E  Q    Q     
----------------------------|-------------------------|
----------------------------|-------------------------|
--3----2----3--0--0-0-0--0--|--7----5----8--7---------|
----------------------------|--------------------5----|


  Q    Q    S S S S S  E.     E  S E  S E  E  S S E  E   
---------------------------|----------------------------|
---------------------------|----------------------------|
---------------------------|--0---------0--0--0-0-0--0--|
--3----L----3-3-0-0-3S-4---|-------3--------------------|


  E  S E  S E  E  S S E  E     E  S E  S E  Q    Q       H.           S E.   
----------------------------|-------------------------|---------------------|
----------------------------|-------------------------|---------------------|
--3----2----3--0--0-0-0--0--|--7----5----8--7---------|---------------------|
----------------------------|--------------------5----|--3------------3-4---|


  E  S E  S E  E  S S E  E     E  S E  S E  E  S S E  E   
----------------------------|----------------------------|
----------------------------|----------------------------|
--0---------0--0--0-0-0--0--|--3----2----3--0--0-0-0--0--|
-------3--------------------|----------------------------|


  E  S E  S E  Q    Q       Q    Q    S S S S S  E.   
-------------------------|---------------------------|
-------------------------|---------------------------|
--7----5----8--7---------|---------------------------|
--------------------5----|--3----L----3-3-0-0-3S-4---|


  E  S E  S E  E  S S E  E     E  S E  S E  E  S S E  E   
----------------------------|----------------------------|
----------------------------|----------------------------|
--0---------0--0--0-0-0--0--|--3----2----3--0--0-0-0--0--|
-------3--------------------|----------------------------|


  E  S E  S E  Q    Q       W                   W                 
-------------------------|-------------------|-------------------|
-------------------------|-------------------|-------------------|
--7----5----8--7---------|-------------------|-------------------|
--------------------5----|--3----------------|--L----------------|


  W                   W                   H        E  S E  S E     
-------------------|-------------------|-------------------------||
-------------------|-------------------|-------------------------||
-------------------|-------------------|-----------0-------------||
--L----------------|--L----------------|----------------3----5S--||




Duration Legend
---------------
W - whole
H - half
Q - quarter
E - 8th
S - 16th
T - 32nd
X - 64th
. - note dotted
|-n-|  - n-tuplets


Tablature Legend
----------------
L - tied note
x - dead note
g - grace note
(n) - ghost note
> - accentuded note
NH - natural harmonic
AH - artificial harmonic
TH - tapped harmonic
SH - semi harmonic
PH - pitch harmonic
h - hammer on
p - pull off
b - bend
br - bendRelease
pb - preBend
pbr - preBendRelease
brb - bendReleaseBend
\n/ - tremolo bar dip
\n - tremolo bar dive
-/n - tremolo bar Release up
/n\ - tremolo bar inverted dip
/n - tremolo bar return
-\n - tremolo bar Release down
S - shift slide
s - legato slide
/ -  slide into from below or out of upwards
\ -  slide into from above or out of downwards
~ - vibrato
W - wide vibrato
tr - trill
TP - tremolo picking
T - tapping
S - slap
P - pop
< - fade in
^ - brush up
v - brush down





Comments


Popular Accept tabs & chords
Amamos La Vida Bass Tabs
Hellhammer Bass Tabs
Living For Tonight Bass Tabs
Living For Tonight 2 Bass Tabs
London Leatherboys Bass Tabs
Midnight Mover Bass Tabs
Blood Of The Nations Tabs
Bound To Fail Tabs
Drifting Apart Tabs
Screaming For A Love Bite Intro Tabs


Song lyrics



↑ Back to top | Tablatures and chords are parodies/interpretations of the original songs. You may use it for private study, scholarship, research or language learning purposes only
© 2014 AZChords.com Contact us | Privacy policy | DMCA | Add/correct tabs | Request tabs | Top 50 tabs