>
 >
Head Over Heels

Head Over Heels Guitar Tabs

Accept - Head Over Heels chords, tabs, tablatures, lyrics

Guitar lessons | Add/correct | Request | Top 50 tabs Artists:  A B C D E F G H I J K L M N O P Q R S T U V W X Y Z 0-9

Head Over Heels Guitar Tabs – Accept

CD, Sheet music, Poster

Do you like Head Over Heels? Share with your friends now
TabsTabs v2Tabs v3


                              ___________________________    __________________________    
Intro:                       |1.                         |  |2.                        |  
E |--14-------12-15-14----12-|--14-------12-15-14----19--|  |--14-------12-15-14-------|
B |-----15-12----------15----|-----15-12----------15-----|  |-----15-12----------15----|
G |o-------------------------|--------------------------o|  |-----------------------2--|
D |o-------------------------|--------------------------o|  |-----------------------2--|
A |--------------------------|---------------------------|  |-----------------------0--|
E |--------------------------|---------------------------|  |--------------------------|
           LR---/                      LR---/                         LR---/

Main riff:
E |------------------------|------------------------|
B |------------------------|------------------------|
G |------------------------|------------------------|
D |--------7-----6-------6-|--------7-----6-------6-|
A |-4--4-4---4-4---4-4-7---|-4--4-4---4-4---4-4-7---|
E |------------------------|------------------------|
    PM____|  PM_|  PM___|    PM____|  PM_|  PM___|

E |-------------------------|---------------------------|
B |-------------------------|---------------------------|
G |-------------------------|---------------------------|
D |--------2------------4-0-|--------7-----6----6-4-----|
A |-0--0-0---0-0-2--2-2-----|-4--4-4---4-4----------7-6-|
E |-------------------------|----------------4----------|
    PM____|  PM________|      PM____|  PM_|  PM


Verse 1:

Late at night in the park...
Down on my knees, God help me please...
E |-------------------------|------------------------|
B |-------------------------|------------------------|
G |o------------------------|------------------------|
D |o--------7-----6-------6-|--------7-----6-------6-|
A |--4--4-4---4-4---4-4-7---|-4--4-4---4-4---4-4-7---|
E |-------------------------|------------------------|
     PM____|  PM_|  PM___|    PM____|  PM_|  PM___|

                             Verse 2 second time w/Riff A
E |-------------------------|----------------------------|
B |-------------------------|----------------------------|
G |-------------------------|---------------------------o|
D |--------4------------4-0-|--------7-----6----6-4-----o|
A |-2--2-2---2-2-2--2-2-----|-4--4-4---4-4----------7-6--|
E |-------------------------|----------------4-----------|
    PM____|  PM________|      PM____|  PM_|  PM

Riff A:          H P
E |-------------/\/\--------|
B |-------10---9-10-9-------|
G |-9(11)-------------6-----|
D |-------------------------|
A |-------------------------|
E |-------------------------|

Prechorus 1:

Gotta follow now, like being in trance for me...
E |-------------|-------------|----------|------------------------|
B |-------------|-------------|----------|------------------------|
G |-4---4-------|-------------|-4---4----|------------------------|
D |-4---4-------|---6-4-6-----|-4---4----|--------7-----6-------6-|
A |-2-0-2--(2)0-|---4-2-4-----|-2-0-2----|-4--4-4---4-4---4-4-7---|
E |----------\/-|-------------|----------|------------------------|
      PM      P                   PM       PM____|  PM_|  PM___|

There's a silence here, more than all the noise
E |-------------|-------------|---------|-----------------|
B |-------------|-------------|---------|-----------------|
G |-4---4-------|-----------4-|-2-------|-4-4-4-4-4-------|
D |-4---4-------|---6-4-6---4-|-2-------|-4-4-4-4-4-------|
A |-2-0-2--(2)0-|---4-2-4---2-|-0-------|-2-2-2-2-2-------|
E |----------\/-|-------------|---------|-----------------|
      PM      P                         

Chorus 1:                              
                                               w/Riff B 1st chorus
Spurting in the dark head over heels...        w/Riff C 2nd chorus 
E |-----------|---------------|---------------|-----------|
B |-----------|---------------|---------------|-----------|
G |-6-------4-|-----2-------2-|-----4-------4-|-----6-----|
D |-6-------4-|-----2-------2-|-----4-------4-|-----6-----|
A |-4---2-2-2-|-0-0-0---0-0-0-|-0-0-2---2-2-2-|-2-2-4-----|
E |-----------|---------------|---------------|-----------|
        PM_|    PM_|    PM_|    PM_|    PM_|    PM_|                               


E |-----------|---------------|-------|
B |-----------|---------------|-------|
G |-6-------4-|-----2-------2-|-----4-|
D |-6-------4-|-----2-------2-|-----4-|
A |-4---2-2-2-|-0-0-0---0-0-0-|-0-0-2-|
E |-----------|---------------|-------|
        PM_|    PM_|    PM_|    PM_| 

Riff B:

  Every day, every night
E 		|----------------------|
B 		|-----9--7-------------|
G 		|------\/--9-8-6-9-6---|
D 		|-------P--------------|
A 		|----------------------|
E 		|----------------------|

Riff C:

  Every day, every night
E 		|----------------------|
B 		|---------9-10-9-------|
G 		|---6-8-6--------------|
D 		|----------------------|
A 		|----------------------|
E 		|----------------------|


Intermission:                                         

E |---------------------------|
B |---------------------------|
G |---------------------------|
D |--------7-----6----6-4-----|
A |-4--4-4---4-4----------7-6-|
E |----------------4----------|
    PM____|  PM_|  PM
                                                      ________
                                                     |1st time|
E |--------------------------|--------------------------------|
B |--------------------------|--------------------------------|
G |o-------------------------|-------------------------------o|
D |o-------------------------|----------------------7--------o|
A |---9------7-9(b)(bR)----7-|-9------7-9(b)(br)----0-9h10p9--|
E |-----10-7------------10---|---10-7------------10-----------|


Verse 2: same as Verse 1

Prechorus 2:

I surrender right now! I've to be touched, I feel so much
E |---------|---------------|---------|---------------|
B |---------|---------------|---------|---------------|
G |-2---2---|---------------|-2-------|-4-4-4-4-4-----|
D |-2---2---|---6-4-6-------|-2-------|-4-4-4-4-4-----|
A |-0-0-0---|---4-2-4---4-4-|-0---0-0-|-2-2-2-2-2-----|
E |---------|---------------|---------|---------------|
      PM                PM_|      PM_|     

Chorus 2: same as Chorus 1

                     2 times
E |--------------------------|
B |--------------------------|
G |o------------------------o|
D |o------------------------o|
A |---------7-----6-------6--|
E |--4--4-4---4-4---4-4-7----|
     PM____|  PM_|  PM___|

                                                         |====2/4 bar====|
E |--------------------------|---------------------------|---------------|
B |--------------------------|---------------------------|-------------H-|
G |--------------------------|---------------------------|--------H---/\/|
D |--------------------------|---------------------------|-------/\--4-6-|
A |---------7----6---------6-|-7-6--------6-7-6--------6-|-7-6---6-7-----|
E |-4--4-4---4-4---4-4-7-7---|-----7-4--7-------7-5--7---|-----7-5---4---|
    PM____|  PM_|  PM_|                                   * solo begins with
                                                            the hammer-ons

Solo:
E |-------------------------------|-------------------------------|
B |H--------H---------------------|---------------7-9-10-9H10P9\--|
G |\-------/\-------9B(11)R9-8H9--|--6~---------------------------|
D |7------6-7---------------------|-------------------------------|
A |-------------------------------|-------------------------------|
E |-------------------------------|-------------------------------|
  |                               |               . .  .          |
E |-------------------------------|-------------------------------|
B |-------------------------------|-------------------------------|
G |-------------------------------|--6------6------6------6-------|
D |--4------4------4------4-------|--6------6------6------6-------|
A |--4------4------4------4-------|--4--4-4-4--4-4-4--4-4-4--4-4--|
E |--2--2-2-2--2-2-2--2-2-2--2-2--|-------------------------------|

E |-------------------------------|-------------------------------|
B |--/9---------------12B(14)-----|-R12----9H10-7------7-7-7-5H7P5|
G |-------------------------------|-------------------------------|
D |-------------------------------|-------------------------------|
A |-------------------------------|-------------------------------|
E |-------------------------------|-------------------------------|
  |                               |                               |
E |-------------------------------|-------------------------------|
B |-------------------------------|-------------------------------|
G |-------------------------------|-------------------------------|
D |--2------2------2------2-------|--4------4------4------4-------|
A |--2------2------2------2-------|--4------4------4------4-------|
E |--0--0-0-0--0-0-0--0-0-0--0-0--|--2--2-2-2--2-2-2--2-2-2--2-2--|

E |-------------------------------|-------------------------------|
B |--------5-6b(7)-6b(7)-5-5-6b(7)|-------------------------------|
G |--7---7------------------------|--6~~~----------------6H7P6----|
D |-------------------------------|----------------------------9--|
A |-------------------------------|-------------------------------|
E |-------------------------------|-------------------------------|
  |                               |                               |
E |-------------------------------|-------------------------------|
B |-------------------------------|-------------------------------|
G |--7------7------7------7-------|--6------6------6------6-------|
D |--7------7------7------7-------|--6------6------6------6-------|
A |--5--5-5-5--5-5-5--5-5-5--5-5--|--4--4-4-4--4-4-4--4-4-4--4-4--|
E |-------------------------------|-------------------------------|

E |-------------------------------|-------------------------------|
B |-------------------------------|-----7-9-10-9-10-12-10-12-10H12|
G |9-7-6-7H6---6------------------|6-7-9--------------------------|
D |-----9---9-7--9-7-6-9-7-6-7-9--|-------------------------------|
A |-------------------------------|-------------------------------|
E |-------------------------------|-------------------------------|
  |                               |                               |
E |-------------------------------|-------------------------------|
B |-------------------------------|-------------------------------|
G |--6------6------6------6-------|--6------6------6------6-------|
D |--6------6------6------6-------|--6------6------6------6-------|
A |--4--4-4-4--4-4-4--4-4-4--4-4--|--4--4-4-4--4-4-4--4-4-4--4-4--|
E |-------------------------------|-------------------------------|

E |-------------------------------|-------------------------------|
B |--13B(15)---------5H7----------|-5H7---------------5-7-8B(10)--|
G |-------------------------------|-------------------------------|
D |-------------------------------|-------------------------------|
A |-------------------------------|-------------------------------|
E |-------------------------------|-------------------------------|
  |                               |                               |
E |-------------------------------|-------------------------------|
B |-------------------------------|-------------------------------|
G |-------------------------------|-------------------------------|
D |--4------4------4------4-------|--2------2------2------2-------|
A |--4------4------4------4-------|--2------2------2------2-------|
E |--2--2-2-2--2-2-2--2-2-2--2-2--|--0--0-0-0--0-0-0--0-0-0--0-0--|

E |-------------------------------|-------------------------------|
B |-8B(11)R8----------7--5H7P5----|-------------------------------|
G |-------------------------------|---6~~~--6H7P6P4-6~~~----------|
D |-------------------------------|-------------------------------|
A |-------------------------------|-------------------------------|
E |-------------------------------|-------------------------------|
  |                               |                               |
E |-------------------------------|-------------------------------|
B |-------------------------------|-------------------------------|
G |--7------7------7------7-------|--6------6------6------6-------|
D |--7------7------7------7-------|--6------6------6------6-------|
A |--5--5-5-5--5-5-5--5-5-5--5-5--|--4--4-4-4--4-4-4--4-4-4--4-4--|
E |-------------------------------|-------------------------------|

E |-------------------------------|---------------7-----9---------|
B |--------7--------------9-------|--------10---------------------|
G |----6-6---6-6------6-6---6-6---|----6-6----6-----6-------------|
D |-------------------------------|-------------------------------|
A |-------------------------------|-------------------------------|
E |-------------------------------|-------------------------------|
  |                               |                               |
E |-------------------------------|-------------------------------|
B |-------------------------------|-------------------------------|
G |--6------6------6------6-------|--6------6------6------6-------|
D |--6------6------6------6-------|--6------6------6------6-------|
A |--4--4-4-4--4-4-4--4-4-4--4-4--|--4--4-4-4--4-4-4--4-4-4--4-4--|
E |-------------------------------|-------------------------------|

E |--7H9P7------------------------|
B |-------10-9-10-7---------------|
G |-----------------6/7-----------|
D |---------------------9\7-6-----|
A |-------------------------------|
E |-------------------------------|
  |                               |
E |-------------------------------|
B |-------------------------------|
G |--6------6------6------6-------|
D |--6------6------6------6-------|
A |--4--4-4-4--4-4-4--4-4-4--4-4--|
E |-------------------------------|


E |------------------------|-------------|--------------|------------------------|
B |------------------------|-------------|--------------|------------------------|
G |-4-4-4-4-4-4-4--6H7-6-6-|---6P4-6-----|6P4--4-4------|------------------------|
D |------------------------|-------------|---------7-6-7|-6~~~------------6-7-6--|
A |------------------------|-------------|--------------|------------------------|
E |------------------------|-------------|--------------|------------------------|
  |                        |             |              |                        |
E |------------------------|-------------|--------------|------------------------|
B |------------------------|-------------|--------------|------------------------|
G |-4---4------------------|-------------|-4---4--------|------------------------|
D |-4---4------------------|---6-4-6-----|-4---4--------|--------7-----6-------6-|
A |-2-0-2--(2)0------------|---4-2-4-----|-2-0-2--------|-4--4-4---4-4---4-4-7---|
E |----------\/------------|-------------|--------------|------------------------|
      PM      P                              PM           PM____|  PM_|  PM___|


               * a 3rd guitar do the bottom note of those thirds
E |-----------|-------------|--------------------7--|--------------------------|
B |-----------|--9-7-9----7-|---------7-10P9P7-10-10|9-7-10P9p7-7--------------|
G |-4-4-------|--9-8-9----8-|9-8-6-8-9--------9-----|----------9-9-8-9-8-6-5-6~|
D |-----7-6-7-|-------------|-----------------------|--------------------------|
A |-----------|-------------|-----------------------|--------------------------|
E |-----------|-------------|-----------------------|--------------------------|
  |           |             |                       |                          |
E |-----------|-------------|-----------------------|--------------------------|
B |-----------|-------------|-----------------------|--------------------------|
G |-4---4-----|-----------4-|-2---------------------|--4-4-4-4-4---------------|
D |-4---4-----|--6-4-6----4-|-2---------------------|--4-4-4-4-4---------------|
A |-2-0-2-(2)0|--4-2-4----2-|-0---------------------|--2-2-2-2-2---------------|
E |--------\/-|-------------|-----------------------|--------------------------|
      PM

Chorus 3: same as Chorus 1 (2 times) (fade out)





Comments


Popular Accept tabs & chords
I Don't Wanna Be Like You Bass Tabs
Love Sensation Bass Tabs
Winter Dreams Chords
Breaking Up Again Tabs
Hellhammer Tabs
Restless And Wild Tabs
Restless And Wild 2 Tabs
Stalingrad Tabs
Teutonic Terror 1 Tabs
X-T-C Tabs


Song lyrics



↑ Back to top | Tablatures and chords are parodies/interpretations of the original songs. You may use it for private study, scholarship, research or language learning purposes only
© 2014 AZChords.com Contact us | Privacy policy | DMCA | Add/correct tabs | Request tabs | Top 50 tabs