» » »

Accept, Balls To The Wall Tabs (ver.2)

Artists:  A B C D E F G H I J K L M N O P Q R S T U V W X Y Z # 

Balls To The Wall Tabs (ver.2)

Accept Tabs
 Rating:
4.6/5 (9 votes)
Balls To The Wall lessons Tabs too difficult? Try these video lessons and learn fast
1
                Accept - Balls To The Wall


Tablature Legend:
PM|-| - Palm Mute
\     - slide down
/     - slide up
~     - vibrato
h     - hammer-on
P     - pull-off
\\\   - slide slowly
?(?)  - bend (to what is in the brackets)
d     - dive-bomb
d~    - dive-bomb (with a bit of arm vibration)

Intro:
e|------------------------------------------------------------|
B|------------------------------------------------------------|
G|------------------------------------------------------------|
D|------5---2-0--2-----5---2-0--------5---2-0--2----5---6-7~--|
A|-13\--5---2-0--2-----5---2-0--------5---2-0--2----5---6-7~--|
E|--------0--------0-0---0------0-0-0---0---------0-----------|
PM       |-|      |---| |-|    |-----| |-|       |-|
                                                      (x2)
e|-------------------------------------------------------|
B|-------------------------------------------------------|
G|-------------------------------------------------------|
D|-5---2-0--2-----5---2-0--------5---2-0--2----5---6-7~--|
A|-5---2-0--2-----5---2-0--------5---2-0--2----5---6-7~--|
E|---0--------0-0---0------0-0-0---0---------0-----------|
PM  |-|      |---| |-|    |-----| |-|       |-|

e|-----------------------------------------------------|
B|-----------------------------------------------------|
G|-----------------------------------------------------|
D|-5---2-0--2-----5---2-0--------5---2-0--2----5~~~~~--|
A|-5---2-0--2-----5---2-0--------5---2-0--2----5~~~~~--|
E|---0--------0-0---0------0-0-0---0---------0---------|
PM  |-|      |---| |-|    |-----| |-|       |-|

Verse I:
e|-------------------------------------------------------------------------------------|
B|-------------------------------------------------------------------------------------|
G|-12--9\7----4--7/9----12--9\7----4--7/9----12--9\7----4--7/9----12--9\7----4--7/9----|
D|-12--9\7----4--7/9----12--9\7----4--7/9----12--9\7----4--7/9----12--9\7----4--7/9----|
A|-10-------------------10-------------------10-------------------10-------------------|
E|-------------------------------------------------------------------------------------|

e|-----------|
B|-----------|
G|-----------|
D|-----------|
A|-0h24\\\\--|
E|-----------|

Pre-Chorus I:
e|-----------------------------------------|
B|-----------------------------------------|
G|-4---12---4---2---4---12---4---2-2-2-2-2-|
D|-4---12---4---2---4---12---4---2-2-2-2-2-|
A|-2---10---2---0---2---10---2---0-0-0-0-0-|
E|-----------------------------------------|

Chorus I:
                           (x3)
e|----------------------------|
B|----------------------------|
G|---------------------7--6---|
D|---4-------------4---5--4---|
A|-2-2-2-5--4------2----------|
E|-0---0-3--2--0-0---0--------|
PM            |---| |-|

e|---------------------------------------|
B|---------------------------------------|
G|----------------7--7--7--9-------------|
D|---4---5--5--5--7--7--7--9-------------|
A|-2-2-2-5--5--5--5--5--5--7-------------|
E|-0---0-3--3--3-------------------------|

Verse II: same as Verse I
Pre-Chorus II: same as pre-chorus I
Chorus II: same as Chorus I

Bridge:
  Gtr I
e|-16~~-17~~-16~-----19~-16~-22~-22(23)~-|-22(23)~-19~--------------17(18)-17(18)(17)-|
B|---------------17~---------------------|-------------17~-d~~~~~---------------------|
G|---------------------------------------|--------------------------------------------|
D|---------------------------------------|--------------------------------------------|
A|---------------------------------------|--------------------------------------------|
E|---------------------------------------|--------------------------------------------|
 |Gtr II
e|---------------------------------------|--------------------------------------------|
B|---------------------------------------|--------------------------------------------|
G|-----------9---------------------------|-9------------------------9-----------------|
D|-----------9---------------------------|-9------------------------9-----------------|
A|-----------7---------------------------|-7------------------------7-----------------|
E|---------------------------------------|--------------------------------------------|

  Gtr I
e|---------------------------------|
B|-18-15(16)(15)-------------------|
G|---------------17-15-------------|
D|---------------------17-16-15-\--|
A|---------------------------------|
E|---------------------------------|

Solo:

e|-17(18)--17(18)\--19-21-22-24-24(26)--\--|------------------------------15(17)-15(17)-|
B|-17(18)--17(18)\-------------------------|-12----12-----------------------------------|
G|-----------------------------------------|-12----12-----------------------------------|
D|-----------------------------------------|----14----14-12-9---------------------------|
A|-----------------------------------------|------------------6h7p6h7p6h7---------------|
E|-----------------------------------------|--------------------------------------------|

e|------------------------------------------|--------------------------------------|
B|-19(21)-19(21)------------------------16~-|--------------------------------------|
G|------------------------------------------|-------------12-------12-------14-12--|
D|----------------14p12---------------------|-------------12-------12-------14-12--|
A|----------------------14p12---------------|-14-14-14-14----14-14----14-14--------|
E|----------------------------14p12-14------|--------------------------------------|

e|-------------17(19)~~-|---------------------------------------------------------------|
B|----------------------|---------------------------------------------------------------|
G|----------------------|-------------------------------------------------9(11)—9p7-9-7-|
D|-9p7------------------|---------------------------------------------------------------|
A|-----9p7--------------|-2---4--5--4--2--------2------2---4--5--4--5—7-----------------|
E|---------9-7----------|-----------------5--3-----2------------------------------------|

e|---------------------------------------------------------------------|
B|---------------------------------------------------------------------|
G|-----6--7--6-----------------------6--7--6--7—7(9)~~~----------------|
D|-9------------9--7------9------9-------------------------------------|
A|--------------------10-----9-----------------------------------------|
E|------------------------------------------------------0--------------|End Solo

Solo Rhythm
e|--------------------------------------------------------------------------------------|
B|--------------------------------------------------------------------------------------|
G|--------------------------------------------------------------------------------------|
D|-4-------4---2---4-------4---2---4-------4---2---4-------4---2------------------------|
A|-2---5---2---0---2---5---2---0---2---5---2---0---2---5---2---0---------2--------------|
E|-----3---------------3---------------3---------------3-----------0--3--0--------------|

Then the long pause................

Anyway:

Pre-Chorus: Same as Pre-Chorus I

Chorus III: same as Chorus I

End of Chorus III:
e|-------------------------|
B|-------------------------|
G|-------------------------|
D|-(13)(11)----9-7---------|
A|-----------------9-8-7---|
E|-----------------------7-|


Chorus IV: same as Chorus I (except for added guitar parts as follows):

 |   You’ve got your   |                            |   You’ve got your   |
 |Balls to the wall man|      Balls to the wall     |Balls to the wall man|
e|---------------------|----------------------------|---------------------|
B|---------------------|----------------------------|---------------------|
G|---------------------|----------------------------|---------------------|
D|---------------------|----------------------------|---------------------|
A|---------------------|---------------5-3----------|---------------------|
E|---------------------|-------------------5-4-3-1~-|---------------------|

 |     Balls to the wall      |
e|----------------------------|
B|----------------------------|
G|----------------------------|
D|----------------------------|
A|--------------(13)(11)—-----|
E|-----------------------0d---|

Outro:
You’ve got your Balls to the Wall MAN!!!!
e|---------|
B|---------|
G|---------|
D|---4-----|
A|-2-2-2-5-|
E|-0---0-3-|

Enjoy!
            
Submit corrections

comments powered by Disqus
↑ Back to top | Accept Tabs for Balls To The Wall. Lyrics for acoustic guitar and electric guitar. 1 Tablatures and chords are parodies/interpretations of the original songs. You may use it for private study, scholarship, research or language learning purposes only