» » »

A.C.A.B, Where Have All The Bootboys Gone? Bass tabs (ver.2)

Artists:  A B C D E F G H I J K L M N O P Q R S T U V W X Y Z # 

Where Have All The Bootboys Gone? Bass tabs (ver.2)

A.C.A.B Tabs
Rating:
0/5 (0 votes)
Where Have All The Bootboys Gone? lessons Tabs too difficult? Try these video lessons and learn fast
                ----------------------------------------------------------------------------
----------------------------------------------------------------------------


* Not really sure about the palm mute part. 
* Please leave your comment for us (me especially) to improve.

Tuning: Standard E

Song Progression: Intro 1X
		  Verse 2X
		  Chorus 1X
		  Verse 2X
		  Chorus 1X
		  Solo (same as verse) 2X
		  Chorus 1X

Intro:

     D5            F#5           B5            G5              A5
G|-------------|-------------|-------------|---------------------------------|
D|-------------|-------------|-------------|---------------------------------|
A|-5-------3-0-|---------2-0-|-2-------3-3-|---------------------------------|
E|-------------|-2-----------|-------------|-3-3-3-3-3-3-3-3-5-5-5-5-5-5-5-5-|


Verse:

     D5
G|---------------------------------|
D|---------------------------------|
A|-5---5-5-5-5-5-5-5-5-5-5-5-5-3-0-|
E|---------------------------------|

     F#5
G|---------------------------------|
D|---------------------------------|
A|-----------------------------2-0-|
E|-2---2-2-2-2-2-2-2-2-2-2-2-2-----|

     B5
G|---------------------------------|
D|---------------------------------|
A|-2---2-2-2-2-2-2-2-2-2-2-2-2-3-3-|
E|---------------------------------|

     G5               A5
G|---------------------------------|
D|---------------------------------|
A|---------------------------------|
E|-3---3-3-3-3-3-0-5---5-5-5-5-5-0-|


Chorus:

     G5
G|---------------------------------|
D|---------------------------------|
A|---------------------------------|
E|-3---3-3-3-3-3-3-3-3-3-3-3-3-3-3-|
      |--palm muted---palm muted--|

     A5
G|---------------------------------|
D|---------------------------------|
A|---------------------------------|
E|-5---5-5-5-5-5-5-5-5-5-5-5-5-5-5-|
      |--palm muted---palm muted--|

     D5               F#5
G|---------------------------------|
D|---------------------------------|
A|-5---5-5-5-5-5-0-----------------|
E|-----------------2---2-2-2-2-2-0-|

     B5
G|---------------------------------|
D|---------------------------------|
A|-2---2-2-2-2-2-2-2-2-2-2-2-2-2-0-|
E|---------------------------------|

     G5
G|---------------------------------|
D|---------------------------------|
A|---------------------------------|
E|-3---3-3-3-3-3-3-3-3-3-3-3-3-3-3-|
      |--palm muted---palm muted--|

     A5
G|---------------------------------|
D|---------------------------------|
A|---------------------------------|
E|-5---5-5-5-5-5-5-5-5-5-5-5-5-5-5-|
      |--palm muted---palm muted--|

     D5
G|---------------------------------|
D|---------------------------------| Repeat 2X
A|-5---5-5-5-5-5-5-5-5-5-5-5-5-5-5-|
E|---------------------------------|


============================================================================
            
Submit corrections

comments powered by Disqus
↑ Back to top | A.C.A.B Bass for Where Have All The Bootboys Gone?. Lyrics for acoustic guitar and electric guitar. Tablatures and chords are parodies/interpretations of the original songs. You may use it for private study, scholarship, research or language learning purposes only