» » »

A.C.A.B, Street Feeling Tabs (ver.1)

Artists:  A B C D E F G H I J K L M N O P Q R S T U V W X Y Z # 

Street Feeling Tabs (ver.1)

A.C.A.B Tabs
Rating:
0/5 (0 votes)
Street Feeling lessons Tabs too difficult? Try these video lessons and learn fast
                Intro 4x
e||-----------------------------------------------------------------------||
G||-----------------------------------------------------------------------||
B||-----------------------------------------------------------------------||
D||----3-2-5-3-2----3-2-----0--------3-2-5-3-2-------5--5--4--5--5(s)7----||
A||-0---------------------3---3-------------------0-----------------------||
E||---------------1---------------3---------------------------------------||

Verse 2x
e||-----------------------------------------------------------------------||
G||-----------------------------------------------------------------------||
B||-----------------------------------------------------------------------||
D||--777777777777777--33333333333333--55555555555555---777777777777777----||
A||--777777777777777--33333333333333--555555555555555--777777777777777----||
E||--555555555555555--11111111111111--333333333333333--555555555555555----||


Pre-Chorus

e||---------------------------------------------------||
G||---------------------------------------------------||
B||------------------444444444444444--999999999999999-||
D||-333333333333333--444444444444444--999999999999999-||
A||-333333333333333--222222222222222--777777777777777-||
E||-111111111111111-----------------------------------||

Chorus 2x
e||-----------------------------------------------------------------------||
G||-----------------------------------------------------------------------||
B||-----------------------------------------------------------------------||
D||--777777777777777--33333333333333--55555555555555---777777777777777----||
A||--777777777777777--33333333333333--555555555555555--777777777777777----||
E||--555555555555555--11111111111111--333333333333333--555555555555555----||

Intro 2x

e||-----------------------------------------------------------------------||
G||-----------------------------------------------------------------------||
B||-----------------------------------------------------------------------||
D||----3-2-5-3-2----3-2-----0--------3-2-5-3-2-------5--5--4--5--5(s)7----||
A||-0---------------------3---3-------------------0-----------------------||
E||---------------1---------------3---------------------------------------||


Verse 2x
e||-----------------------------------------------------------------------||
G||-----------------------------------------------------------------------||
B||-----------------------------------------------------------------------||
D||--777777777777777--33333333333333--55555555555555---777777777777777----||
A||--777777777777777--33333333333333--555555555555555--777777777777777----||
E||--555555555555555--11111111111111--333333333333333--555555555555555----||


Pre-Chorus

e||---------------------------------------------------||
G||---------------------------------------------------||
B||------------------444444444444444--999999999999999-||
D||-333333333333333--444444444444444--999999999999999-||
A||-333333333333333--222222222222222--777777777777777-||
E||-111111111111111-----------------------------------||

Chorus 2x
e||-----------------------------------------------------------------------||
G||-----------------------------------------------------------------------||
B||-----------------------------------------------------------------------||
D||--777777777777777--33333333333333--55555555555555---777777777777777----||
A||--777777777777777--33333333333333--555555555555555--777777777777777----||
E||--555555555555555--11111111111111--333333333333333--555555555555555----||

Solo

e||-----------------------------------------------||
B||-----------------------------------------------||
G||-----------------5-------------5-7-5-7-9-7-5---||
D||---------5---5-7---7-5-7---5-7---------------7-||
A||-------7---7-----------------------------------||
E||-3-5-7-----------------------------------------||

e||-----------------------------------------------||
B||---------8---8---8-----------------------------||
G||---5-7-9---9---9---7~-5-9-7-5------5-7-9-7-5---||
D||-7----------------------------7--7-----------7-||
A||-----------------------------------------------||
E||-----------------------------------------------||

e||-----------------------------------||
B||-----------------------------------||
G||-----5-------5---5-7-9-9-9-5-------||
D||-5-7---7-5-7---7-------------7-5-7-||
A||-----------------------------------||
E||-----------------------------------||

e||----------------8-----------------8---------8-10-||
B||---------5-8-10---10-8-10-10-8-10---10-8-10------||
G||-----5-7-----------------------------------------||
D||-5-7---------------------------------------------||
A||-------------------------------------------------||
E||-------------------------------------------------||


Pre-Chorus

e||---------------------------------------------------||
G||---------------------------------------------------||
B||------------------444444444444444--999999999999999-||
D||-333333333333333--444444444444444--999999999999999-||
A||-333333333333333--222222222222222--777777777777777-||
E||-111111111111111-----------------------------------||

Chorus 2x
e||-----------------------------------------------------------------------||
G||-----------------------------------------------------------------------||
B||-----------------------------------------------------------------------||
D||--777777777777777--33333333333333--55555555555555---777777777777777----||
A||--777777777777777--33333333333333--555555555555555--777777777777777----||
E||--555555555555555--11111111111111--333333333333333--555555555555555----||
            
Submit corrections

comments powered by Disqus
↑ Back to top | A.C.A.B Tabs for Street Feeling. Lyrics for acoustic guitar and electric guitar. Tablatures and chords are parodies/interpretations of the original songs. You may use it for private study, scholarship, research or language learning purposes only