>
 >
Where Have All The Bootboys Gone? 2

Where Have All The Bootboys Gone? 2 Guitar Tabs

A.C.A.B - Where Have All The Bootboys Gone? 2 chords, tabs, tablatures, lyrics

Guitar lessons | Add/correct | Request | Top 50 tabs Artists:  A B C D E F G H I J K L M N O P Q R S T U V W X Y Z 0-9

Where Have All The Bootboys Gone? 2 Guitar Tabs – A.C.A.B

CD, Sheet music, Poster

Do you like Where Have All The Bootboys Gone? 2? Share with your friends now
Bass TabsTabsTabs v2Tabs v3
   Song : Where Have All The Boot Boys Gone by ACAB
   
   Intro
   
   Guitar 2
   e|--------------------------------------------------|
   B|--------------------------------------------------|
   G|---5---5-9---9------------------------------------|
   D|---5---5-9---9-7---7-3--3-5-5-5-5-5---------------|
   A|---3---3-7---7-7---7-3--3-5-5-5-5-5---------------|
   E|---------------5---5-1--1-3-3-3-3-3---------------|

   Verse

   Guitar 1 
   e|----------------------------------------------------------|
   B|-----------------------------------6b-5b------------------|
   G|--7-7b-5--7-7b-54--7-7b-5------5----5-7------7b-5-4-5-5---|
   D|-----------------------7--5-7-7--7------------------------|
   A|----------------------------------------------------------|
   E|----------------------------------------------------------|

    ------------------------------------------------------|
    ----------6-5b----------------6b-5b-------------------|
    --7-7b-5-4-4----7-5------5----5-7-----7b-5-4-5-5b-----|
    ------------------7--5-7-7--7-------------------------|
    ------------------------------------------------------|
    ------------------------------------------------------|

   Guitar 2 
   e|--------------------------------------------------|
   B|--------------------------------------------------|
   G|---5--------9-------------------------------------|
   D|---5-(x13)--9-(x13)--7--------3-------5-----------|
   A|---3--------7------- 7-(x13)--3-(x7)--5-(x7)------|
   E|---------------------5--------1-------3-----------|

   Pre-chorus
   
   Guitar 2
   e|------------------------|
   B|------------------------|  
   G|------------------------|
   D|---3--------5-----------|
   A|---3-(x13)--5-(x13)-----| 
   E|---1--------3-----------|
     PM......................

   Chorus

   Guitar 1
   e|--------------------------|
   B|-------5-8b-8-6b-5b-------|
   G|--5b-5--------------------|
   D|--------------------------|
   A|--------------------------|
   E|--------------------------|

   Guitar 2
   e|-------------------------------------------------|
   B|-------------------------------------------------|
   G|--5------7------9--------------------------------|
   D|--5-(x5)-7-(x2)-9-(x7)-7-------3-------5---------|
   A|--3------5------7------7-(x13)-3-(x13)-5-(x13)---|
   E|-----------------------5-------1-------3---------|

   That's it!





Comments


Popular A.C.A.B tabs & chords
Goodbye Bass Tabs
Skinhead Selamanya Chords
Bunga Padang Pasir Intro 1 Tabs
Musibah Tabs
Racial Hatred 2 Tabs
Setelah Tabs
Skinhead For Life 1 Tabs
Street Feeling Tabs
Streets Of Uptown (Solo Ver 2) Tabs
Bunga Padang Pasir Ukulele


Song lyrics



↑ Back to top | Tablatures and chords are parodies/interpretations of the original songs. You may use it for private study, scholarship, research or language learning purposes only
© 2014 AZChords.com Contact us | Privacy policy | DMCA | Add/correct tabs | Request tabs | Top 50 tabs