» » »

A.C.A.B, Street Of Uptown Tabs (ver.3)

Artists:  A B C D E F G H I J K L M N O P Q R S T U V W X Y Z # 

Street Of Uptown Tabs (ver.3)

A.C.A.B Tabs
 Rating:
4/5 (4 votes)
Street Of Uptown lessons Tabs too difficult? Try these video lessons and learn fast
                ------------------------------------------------------------------------------
                        Streets Of Uptown - A.C.A.B
------------------------------------------------------------------------------

 
I think there are two version of S.O.U, one is the fast one and the other 
is the slow one. Mine is the fast one, I guess. 
Well this is my first tab, REALLY. So go easy on me, okie? If it's not
that good, then sorrie... try adding your own... Aniwaez, just enjoy, MATES


Tuning : Standard Tuning 

 INTRO
e|--------------|--------------|------------------------------|--------------|
B|--------------|--------------|------------------------------|--------------|
G|-5-5----------|-4-4----------|------------------------------|--------------|
D|-5-5-5-3-2-0--|-4-4----------|-7-7--------------------------|-3-3----------|
A|-3-3----------|-2-2----------|-7-7-7-5-3-5-3-2-3-2-3-2-0----|-3-3-3-2-0----|
E|--------------|-----0--3--0--|-5-5--------------------------|-1-1----------|
  P.M ........    ...........    ...........................    ...........   

e|--------------|------------------------------------------------------------|
B|--------------|------------------------------------------------------------|
G|-5-5----------|------------------------------------------------------------|
D|-5-5-5-3-2-0--|-5-5-5-5-5--------------------------------------------------|
A|-3-3----------|-5-5-5-5-5--------------------------------------------------|
E|--------------|-3-3-3-3-3--------------------------------------------------|


e|----------------------------------------------------------------------------|
B|--------------8-8-6-5---8-6-5--6~5------------------------5-6-8-8-8-6-5-----|
G|------5-7~5-5--------7-7-----7-----7--545-7-5-4-0-----5-5---------------7-7-|
D|---5-7--------------------------------------------3-3-----------------------|
A|5-7-------------------------------------------------------------------------|
E|----------------------------------------------------------------------------|

e|----------------------------------------------------------------------------|
B|----------------------------------------------------------------------------|
G|------5-7~5-5---------------------------------------------------------------|
D|---5-7----------------------------------------------------------------------|
A|5-7-------------------------------------------------------------------------|
E|----------------------------------------------------------------------------|


 Verse 2x

    "Drank in......"  "Saturday nite.."   "Me and the ..." "feeling alright"
e|------------------|------------------|--------------------------------------|
B|------------------|------------------|--------------------------------------|
G|-5-5-5-5-5-5-5-5--|-4-4-4-4-4-4-4-4--|--------------------------------------|
D|-5-5-5-5-5-5-5-5--|-2-2-2-2-2-2-2-2--|-7-7-7-7-7-7-7-7-7-7-7-7-7-7-7-7-7-7--|
A|-3-3-3-3-3-3-3-3--|-2-2-2-2-2-2-2-2--|-7-7-7-7-7-7-7-7-7-7-7-7-7-7-7-7-7-7--|
E|------------------|------------------|-5-5-5-5-5-5-5-5-5-5-5-5-5-5-5-5-5-5--|

  "Then we walk.."   "Lots of pride.."   "Our roots and our way of life .."
e|------------------|------------------|--------------------------------------|
B|------------------|------------------|--------------------------------------|
G|------------------|-5-5-5-5-5-5-5-5--|--------------------------------------|
D|-3-3-3-3-3-3-3-3--|-5-5-5-5-5-5-5-5--|-5-5-5-5-5-5-5-5-5-5-5-5-5-5-5-5------|
A|-3-3-3-3-3-3-3-3--|-3-3-3-3-3-3-3-3--|-5-5-5-5-5-5-5-5-5-5-5-5-5-5-5-5------|
E|-1-1-1-1-1-1-1-1--|------------------|-3-3-3-3-3-3-3-3-3-3-3-3-3-3-3-3------|

  
  Pre-Chorus

  "Thats the story ....."                "treated like a bunch of......."
e|----------------------------------|-----------------------------------------|
B|----------------------------------|-----------------------------------------|
G|----------------------------------|-5-5-5-5-5-5-5-5-5-5-5-5-5-5-5-5---------|
D|-3-3-3-3-3-3-3-3-3-3-3-3-3-3-3-3--|-5-5-5-5-5-5-5-5-5-5-5-5-5-5-5-5---------|
A|-3-3-3-3-3-3-3-3-3-3-3-3-3-3-3-3--|-3-3-3-3-3-3-3-3-3-3-3-3-3-3-3-3---------|
E|-1-1-1-1-1-1-1-1-1-1-1-1-1-1-1-1--|-----------------------------------------|

  "scorn by many ........"           "there's not much things left ......"
e|----------------------------------|-----------------------------------------|
B|----------------------------------|-----------------------------------------|
G|----------------------------------|-----------------------------------------|
D|-5-5-5-5-5-5-5-5-5-5-5-5-5-5-5-5--|-3-3-3-3-3-3-3-3-3-3-3-3-3-3-3-3---------|
A|-5-5-5-5-5-5-5-5-5-5-5-5-5-5-5-5--|-3-3-3-3-3-3-3-3-3-3-3-3-3-3-3-3---------|
E|-3-3-3-3-3-3-3-3-3-3-3-3-3-3-3-3--|-1-1-1-1-1-1-1-1-1-1-1-1-1-1-1-1---------|

  "dont wanna go back ......."       "i've gone too far i could have ....."
e|----------------------------------|-----------------------------------------|
B|----------------------------------|-----------------------------------------|
G|-4-4-4-4-4-4-4-4-4-4-4-4-4-4-4-4--|-----------------------------------------|
D|-2-2-2-2-2-2-2-2-2-2-2-2-2-2-2-2--|-3-3-3-3-3-3-3-3-3-3-3-3-3-3-3-3---------|
A|-2-2-2-2-2-2-2-2-2-2-2-2-2-2-2-2--|-3-3-3-3-3-3-3-3-3-3-3-3-3-3-3-3---------|
E|----------------------------------|-1-1-1-1-1-1-1-1-1-1-1-1-1-1-1-1---------|
  "i dont wanna sit down ....."      "watching my mens doing the best they can ...."
e|--------------------------------|----------------------------------------------------------------|
B|--------------------------------|----------------------------------------------------------------|
G|5-5-5-5-5-5-5-5-5-5-5-5-5-5-5-5-|----------------------------------------------------------------|
D|5-5-5-5-5-5-5-5-5-5-5-5-5-5-5-5-|-5-5-5-5-5-5-5-5-5-5-5-5-5-5-5-5-5-5-5-5-5-5-5-5-5-5-5-5-5-5-5-5|
A|3-3-3-3-3-3-3-3-3-3-3-3-3-3-3-3-|-5-5-5-5-5-5-5-5-5-5-5-5-5-5-5-5-5-5-5-5-5-5-5-5-5-5-5-5-5-5-5-5|
E|--------------------------------|-3-3-3-3-3-3-3-3-3-3-3-3-3-3-3-3-3-3-3-3-3-3-3-3-3-3-3-3-3-3-3-3|

  Chorus 2x

  "Uptown ..oh oh"   ".....street of"   "uptown ...."
e|------------------|------------------|--------------------------------------|
B|------------------|------------------|--------------------------------------|
G|-5-5-5-5-5-5-5-5--|-4-4-4-4-4-4-4-4--|--------------------------------------|
D|-5-5-5-5-5-5-5-5--|-2-2-2-2-2-2-2-2--|-7-7-7-7-7-7-7-7-7-7-7-7-7-7-7-7-7-7--|
A|-3-3-3-3-3-3-3-3--|-2-2-2-2-2-2-2-2--|-7-7-7-7-7-7-7-7-7-7-7-7-7-7-7-7-7-7--|
E|------------------|------------------|-5-5-5-5-5-5-5-5-5-5-5-5-5-5-5-5-5-5--|

  "ups and our ..."  "goes around...."  "around ............in the street of"
e|------------------|------------------|--------------------------------------|
B|------------------|------------------|--------------------------------------|
G|------------------|-5-5-5-5-5-5-5-5--|--------------------------------------|
D|-3-3-3-3-3-3-3-3--|-5-5-5-5-5-5-5-5--|-5-5-5-5-5-5-5-5-5-5-5-5-5-5-5-5------|
A|-3-3-3-3-3-3-3-3--|-3-3-3-3-3-3-3-3--|-5-5-5-5-5-5-5-5-5-5-5-5-5-5-5-5------|
E|-1-1-1-1-1-1-1-1--|------------------|-3-3-3-3-3-3-3-3-3-3-3-3-3-3-3-3------|
            
Submit corrections

comments powered by Disqus
↑ Back to top | A.C.A.B Tabs for Street Of Uptown. Lyrics for acoustic guitar and electric guitar. Tablatures and chords are parodies/interpretations of the original songs. You may use it for private study, scholarship, research or language learning purposes only