» » »

A.C.A.B, Street Of Uptown Bass tabs (ver.1)

Artists:  A B C D E F G H I J K L M N O P Q R S T U V W X Y Z # 

Street Of Uptown Bass tabs (ver.1)

A.C.A.B Tabs
 Rating:
4/5 (4 votes)
Street Of Uptown lessons Tabs too difficult? Try these video lessons and learn fast
1
                -----------------------------------------------------------------------------
-----------------------------------------------------------------------------


Tuning: Standard E

Verse: (Drank in pub ...)

G|-----------------|-----------------|---------------------------------|
D|-----------------|-----------5-3-0-|---------------------------------|
A|-----------7-5-0-|-4---4-4---------|-----------5-3\2/3-5-3\2-3-3-----|
E|-5---5-5---------|-----------------|-2---2-2---------------------2-2-|

G|-----------------|-----------------|---------------------------------|
D|-----------------|-----------------|-----------9-7\6/7-9-7\6/7-7-----|
A|/5---5-5---7-5-0-|-----------7-5-3-|/7---7-7---------------------7-7-|
E|-----------------|-5---5-5---------|---------------------------------|


Pre-Chorus: (That's the story...)

G|-----------------|-----------------|-----------------|-----------------| 
D|-----------------|-----------------|-----------------|-----------------| 
A|-5---5-5---5-5-5-|-----------------|-7---7-7---7-7-7-|-5---5-5---5-5-5-|
E|-----------------|-5---5-5---5-5-5-|-----------------|-----------------| 

G|-----------------|-----------------|-----------------|-----------------|
D|-----------------|-----------------|-----------------|-----------------|
A|-4---4-4---4-4-4-|-5---5-5---5-5-5-|-----------------|-7---7-7---7-7-7-|
E|-----------------|-----------------|-5---5-5---5-5-5-|-----------------|

G|---------------------------------|
D|-----------9-7\6/7-9-7\6/7-7-----|
A|-7---7-7---------------------7-7-|
E|---------------------------------|

Chorus: (In the streets ...)	<--same as Verse

G|-----------------|-----------------|---------------------------------|
D|-----------------|-----------5-3-0-|---------------------------------|
A|-----------7-5-0-|-4---4-4---------|-----------5-3\2/3-5-3\2-3-3-----|
E|-5---5-5---------|-----------------|-2---2-2---------------------2-2-|

G|-----------------|-----------------|---------------------------------|
D|-----------------|-----------------|-----------9-7\6/7-9-7\6/7-7-----|
A|/5---5-5---7-5-0-|-----------7-5-3-|/7---7-7---------------------7-7-|
E|-----------------|-5---5-5---------|---------------------------------|


| /  slide up
| \  slide down
| h  hammer-on
| p  pull-off
| ~  vibrato
| +  harmonic
| x  Mute note
=============================================================================
            
Submit corrections

comments powered by Disqus
↑ Back to top | A.C.A.B Bass for Street Of Uptown. Lyrics for acoustic guitar and electric guitar. 1 Tablatures and chords are parodies/interpretations of the original songs. You may use it for private study, scholarship, research or language learning purposes only