» » »

100 Proof Bass tabs (ver.3)

Artists:  A B C D E F G H I J K L M N O P Q R S T U V W X Y Z # 

100 Proof Bass tabs (ver.3)

88 Fingers Louie
Rating:
0/5 (0 votes)
Tabs too difficult? Try these video lessons and learn fast.
                G:-------------------------------------------------------------------
D:-----------------------------------------------32------3333233333--
A:--5--------345-310--5-----------345--3-----------------------------
E:------345-------------------345------------------------------------

--------20-------00---------
-----32------320----------
--------------------------
----------------------------

G:--------------3555-----------------------3555-----------
D:----------35-------------3h5--------35---------3h5------
A:--3--35-----------------------33-35------------------3--
E:--------------------------------------------------------

G:-------320-----3320----20-----55320----------------------
D:-------------3--------3-----32--------------------------
A:--------------------------------------------------------
E:--------------------------------------------------------
            
Tabs too difficult? Try these video lessons and learn fast.


comments powered by Disqus
↑ Back to top | Tablatures and chords are parodies/interpretations of the original songs. You may use it for private study, scholarship, research or language learning purposes only