» » »

100 Proof Bass tabs (ver.2)

Artists:  A B C D E F G H I J K L M N O P Q R S T U V W X Y Z # 

100 Proof Bass tabs (ver.2)

88 Fingers Louie
Rating:
0/5 (0 votes)

Hard to play? Try these video lessons and learn fast.
                Don't Post bad tabs
88 Fingers Louie - 100 Proof (Solo)
G: ---------------------------------------------------2-0-------------
D: -------------------------------3-2-3-3-33-2-33-333-----3-2-55-3-2-0
A: -5-0-0135-5-3-1-0-5-0-0135-5-3-------------------------------------
E: -------------------------------------------------------------------

G: -------345555----------345555-----
D: ---345-------345---345-------345--
E: -3---------------3----------------
A: ----------------------------------

G: --3-2-----33-2-----2-0-----55-3----
D: ------5-3------5-3-----3-2-----532-
E: -----------------------------------
A: -----------------------------------
            
Hard to play? Try these video lessons and learn fast. | Correct




comments powered by Disqus
↑ Back to top | Tablatures and chords are parodies/interpretations of the original songs. You may use it for private study, scholarship, research or language learning purposes only