» » »

100 Proof Bass tabs (ver.1)

Artists:  A B C D E F G H I J K L M N O P Q R S T U V W X Y Z # 

100 Proof Bass tabs (ver.1)

88 Fingers Louie
Rating:
5/5 (7 votes)
Tabs too difficult? Try these video lessons and learn fast.
                INTRO
G|-7-7-7-7-7-10-10-10-10-10-10-10-10-7-7-7-7-7-12-12-12-12-9--9--9-----------
D|-0-0-0-0-0-0--0--0--0--0--0--0--0--8-8-8-8-8-10-10-10-10-10-10-10----------
A|---------------------------------------------------------------------------
E|---------------------------------------------------------------------------
VERSE 
THIS PART3X
G|---------------------------------------------------------------------------
D|---------------------------------------------------------------------------
A|-3-3-3-3-3-3-3-3-----------------------------------------------------------
E|----------------1-1-1-1-1-3-3-3-0-0-0--------------------------------------
THEN...
G|---------------------------------------------------------------------------
D|---------------------------------------------------------------------------
A|-7-7-7-7-7-7-7-7-7-7-7-7-7-7-7-5-5-5-5-5-5-5-5-5-5-5-5-5-5-5-3-3-3-3-3-3-3-3
E|----------------------------------------------------------------------------
CONT.
G|----------------------------------------------------------------------------
D|----------------------------------------------------------------------------
A|-3-3-3-3-3-3-3--------------------------------------------------------------
E|----------------------------------------------------------------------------
CHORUS
G|-7-7-7-7-7-10-10-10-10-10-10-10-10-7-7-7-7-7-12-12-12-12-9--9--9-----------
D|-0-0-0-0-0-0--0--0--0--0--0--0--0--8-8-8-8-8-10-10-10-10-10-10-10----------
A|---------------------------------------------------------------------------
E|---------------------------------------------------------------------------
            
Tabs too difficult? Try these video lessons and learn fast.


comments powered by Disqus
↑ Back to top | Tablatures and chords are parodies/interpretations of the original songs. You may use it for private study, scholarship, research or language learning purposes only