» » »

Punk Rock Rulebook Bass tabs (ver.1)

Artists:  A B C D E F G H I J K L M N O P Q R S T U V W X Y Z # 

Punk Rock Rulebook Bass tabs (ver.1)

88 Fingers Louie
Rating:
0/5 (0 votes)

Hard to play? Try these video lessons and learn fast.
                intro
G:----------------------------      i'm preeettty sure this is wrong and 
D:-----------3-6-5-5-3-4-2----      doesn't sound good too, but i'm way   
A:---2---2-3---------------5-- X 8  too lazy to work it out correctly so 
E:-0---3----------------------      if you do please e-mail me

verse
G:--------------
D:--------------
A:-2>-------5>-- X 8
E:----0>-3>-----

chorus
G:-------------------------------------
D:----2------------2-------------------
A:------5-3>-5>------5-3>-5-5-5-2-2-2-- X 2
E:-0>-----------0>---------------------

verse 
chorus

bridge
G:---------------------|-----------------
D:---------------------|-----------------
A:-----3-3-----5-5-6-6-|----3>----5>-6>-- X 3
E:-0-0-----5-5---------|-0>----5>--------

chorus

outro
G:----------------------------------------------------
D:----------------------------------------------------
A:-3-3-3-3-5-5-2-2--3-3-3-3-5-5-2-2--7-7-7-7-7-7-7-7--
E:----------------------------------------------------
            
Hard to play? Try these video lessons and learn fast. | Correct




comments powered by Disqus
↑ Back to top | Tablatures and chords are parodies/interpretations of the original songs. You may use it for private study, scholarship, research or language learning purposes only