» » »

6 Voltios, Por Ti Tabs (ver.1)

Artists:  A B C D E F G H I J K L M N O P Q R S T U V W X Y Z # 

Por Ti Tabs (ver.1)

6 Voltios Tabs
 Rating:
4.3/5 (6 votes)
Por Ti lessons Tabs too difficult? Try these video lessons and learn fast
1
                6 Voltios
Por ti
Descomprension


     E5            G#5
Quiero estar contigo otra vez
       C#5          A5       B5
vamonos a un lugar lejos d aqui
      G#5      C#5      B5    >>>>>>>>>>>
quierooo  verte sonreiiiir


        E5            G#5
y escuchar q todo estara bien
     C#5               A5     B5
quiero estar  y siempre estaré

G#5      C#5
Daría todo x ti
     A5         E5           B5
mi guitarra y todas mis canciones
      G#5      A5      B5
quieeeroooo verte sonreiiir


(MUTEO)
E5            G#5
siento aun lo mismo d ayer
C#5                  A5     B5
recuerdo el olor d tu perfume
 G#5      A5      B5
quiero tenerte cerca otra vez

E5            G#5
Dices que no demuestras  q si
C#5       A5        B5
llévame sácame d aquí


G#5      C#5
Daría todo x ti
        A5     E5              B5
mi guitarra y todas mis canciones
      G#5      A5      B5
quieeeroooo verte sonreír


  G#5       A5        E5                  B5
Rompí el hielo x ti y tuve  el tiempo d mi vida
  G#5    C#5                  A5            B5              D#5
daría mi vida x ti y no basta nunca bastara........

   E5 	     G#5	  C#5	   A5	     B5
1|--------------------------------------------------|
2|--------------------------------------------------|
3|-4-4---4---6-6-4---4------------------------------|
4|-----6-----------6------6-6-4----4-6-7-6-4---4----|
5|------------------------------7------------7------|
6|--------------------------------------------------|

   G#5 	      C#5  	 A5	 B5    E5
1|--------------------------------------------------|
2|-------------5-7-9-5-10-10-9-7-5-4---5---5--------|
3|-4-4---4-4/6---------------------------4----------|
4|-----6--------------------------------------------|
5|--------------------------------------------------|
6|--------------------------------------------------|


  E5            G#5
Si te falle perdóname
           C#5                  A5     B5
No fue nunca mi intención lastimarte
      G#5      A5      B5
No puedo verte llorar

        E5            G#5
siento aun lo mismo q ayer
    C#5           A5         B5
llevame sacame de aquí
  


G#5      C#5
Daría todo x ti
   A5          E5             B5
mi guitarra y todas mis canciones
      G#5      A5      B5
quieeeroooo verte sonreiiir


  G#5          A5            E5            B5    >>>>>>>>>>>>>
Rompí el hielo x ti y tuve  el tiempo d mi vida
  G#5        C#5            A5      B5                 D#5
daría mi vida x ti y no basta nunca bastaraaaaaaaaaaa........

   E5 	     G#5	  C#5	   A5	     B5
1|--------------------------------------------------|
2|--------------------------------------------------|
3|-4-4---4---6-6-4---4------------------------------|
4|-----6-----------6------6-6-4----4-6-7-6-4---4----|
5|------------------------------7------------7------|
6|--------------------------------------------------|

   G#5 	      C#5  	 A5	 B5    E5
1|--------------------------------------------------|
2|---------------5-7-9-5-10-10-9-7-5-4-5-5----------|
3|-4-4----4---/6------------------------4-----------|
4|-----6--------------------------------------------|
5|--------------------------------------------------|
6|--------------------------------------------------|

   E5 	       G#5	         C#5	     A5	      B5
1|---------------5------------------------------------------------|
2|-5-----------5---5--9--5--7----5-----------5--9--5--7--9--7-5---|
3|---4----4-6----------------------4------------------------------|
4|-----6-----------------------------6h7 6------------------------|
5|----------------------------------------------------------------|
6|----------------------------------------------------------------|

   G#5 	        C#5  	         A5	   B5
1|----------------------------------------------------------------|
2|-9--5---7--5--5-10--5-9--5-7---9--5---7--5----------------------|
3|------4-----------------------------4---------------------------|
4|----------------------------------------------------------------|
5|----------------------------------------------------------------|
6|----------------------------------------------------------------|

	E5			 E5
1|--------------------------------------|
2|--------------------------------------|
3|--------------------------------------|
4|--------6----4-6--4h6p4-----6---4-----|
5|------7---7---------------7---7---7---|
6|--------------------------------------|
6|--------------------------------------|

Guido
            
Submit corrections

comments powered by Disqus
↑ Back to top | 6 Voltios Tabs for Por Ti. Lyrics for acoustic guitar and electric guitar. 1 Tablatures and chords are parodies/interpretations of the original songs. You may use it for private study, scholarship, research or language learning purposes only