>
 >
Por Ti 1

Por Ti 1 Guitar Tabs

6 Voltios - Por Ti 1 chords, tabs, tablatures, lyrics

Guitar lessons | Add/correct | Request | Top 50 tabs Artists:  A B C D E F G H I J K L M N O P Q R S T U V W X Y Z 0-9

Por Ti 1 Guitar Tabs – 6 Voltios

CD, Sheet music, Poster

Do you like Por Ti 1? Share with your friends now
Bass TabsTabsTabs v2
INTRO

|---------------------------------------------|
|---------------------------------------------|
|-9-----------6-----2-----4----------6-----4--|
|-9-----6-----6-----2-----4----6-----6-----4--|
|-7-----6-----4-----0-----2----6-----4-----2--|
|-------4----------------------4--------------|

VERSO 1

|---------------------------------------------|
|---------------------------------------------|
|-9-9-9-9-----------6-6-6-6--2-2-2-2--4-4-4-4-|
|-9-9-9-9--6-6-6-6--6-6-6-6--2-2-2-2--4-4-4-4-|
|-7-7-7-7--6-6-6-6--4-4-4-4--0-0-0-0--2-2-2-2-|
|----------4-4-4-4----------------------------|

|-------------------------------------------------------------------------|
|-------------------------------------------------------------------------|
|----------6-6-6-6--2-2-2-2--9-9-9-9--4-4-4-4-----------2-2-2-2--4-4-4-4--|
|-6-6-6-6--6-6-6-6--2-2-2-2--9-9-9-9--4-4-4-4--6-6-6-6--2-2-2-2--4-4-4-4--|
|-6-6-6-6--4-4-4-4--0-0-0-0--7-7-7-7--2-2-2-2--6-6-6-6--0-0-0-0--2-2-2-2--| 
|-4-4-4-4--------------------------------------4-4-4-4--------------------|

VERSO 2

|-------------------------------------------------------------------------|
|-------------------------------------------------------------------------|
|-9-9-9-9-----------6-6-6-6--2-2-2-2--4-4-4-4-----------2-2-2-2--4-4-4-4--|
|-9-9-9-9--6-6-6-6--6-6-6-6--2-2-2-2--4-4-4-4--6-6-6-6--2-2-2-2--4-4-4-4--|
|-7-7-7-7--6-6-6-6--4-4-4-4--0-0-0-0--2-2-2-2--6-6-6-6--0-0-0-0--2-2-2-2--|
|----------4-4-4-4-----------------------------4-4-4-4--------------------|

|----------------------------------------------|
|----------------------------------------------|
|-9-9-9-9-----------6-6-6-6--2-2-2-2--4-4-4-4--|
|-9-9-9-9--6-6-6-6--6-6-6-6--2-2-2-2--4-4-4-4--|
|-7-7-7-7--6-6-6-6--4-4-4-4--0-0-0-0--2-2-2-2--|
|----------4-4-4-4-----------------------------|

|-------------------------------------------------------------------------|
|-------------------------------------------------------------------------|
|----------6-6-6-6--2-2-2-2--9-9-9-9--4-4-4-4-----------2-2-2-2--4-4-4-4--|
|-6-6-6-6--6-6-6-6--2-2-2-2--9-9-9-9--4-4-4-4--6-6-6-6--2-2-2-2--4-4-4-4--|
|-6-6-6-6--4-4-4-4--0-0-0-0--7-7-7-7--2-2-2-2--6-6-6-6--0-0-0-0--2-2-2-2--| 
|-4-4-4-4--------------------------------------4-4-4-4--------------------|

PUENTE

|---------------------------------------------|
|---------------------------------------------|
|-------2----9----4---------6----2----4----6--|
|--6----2----9----4----6----6----2----4----8--|
|--6----0----7----2----6----4----0----2----8--|
|--4-------------------4----------------------|


SOLO 1

   E5 	     G#5	  C#5	   A5	     B5
|--------------------------------------------------|
|--------------------------------------------------|
|-4-4---4---6-6-4---4------------------------------|
|-----6-----------6------6-6-4----4-6-7-6-4---4----|
|------------------------------7------------7------|
|--------------------------------------------------|

   G#5 	      C#5  	 A5	 B5    E5
|--------------------------------------------------|
|-------------5-7-9-5-10-10-9-7-5-4---5---5--------|
|-4-4---4-4/6---------------------------4----------|
|-----6--------------------------------------------|
|--------------------------------------------------|
|--------------------------------------------------|

VERSO

|---------------------------------------------|
|---------------------------------------------|
|-9-----------6-----2-----4----------2-----4--|
|-9-----6-----6-----2-----4----6-----2-----4--|
|-7-----6-----4-----0-----2----6-----0-----2--|
|-------4----------------------4--------------|

|----------------------------------------------|
|----------------------------------------------|
|-9-9-9-9-----------6-6-6-6--2-2-2-2--4-4-4-4--|
|-9-9-9-9--6-6-6-6--6-6-6-6--2-2-2-2--4-4-4-4--|
|-7-7-7-7--6-6-6-6--4-4-4-4--0-0-0-0--2-2-2-2--|
|----------4-4-4-4-----------------------------|

|-------------------------------------------------------------------------|
|-------------------------------------------------------------------------|
|----------6-6-6-6--2-2-2-2--9-9-9-9--4-4-4-4-----------2-2-2-2--4-4-4-4--|
|-6-6-6-6--6-6-6-6--2-2-2-2--9-9-9-9--4-4-4-4--6-6-6-6--2-2-2-2--4-4-4-4--|
|-6-6-6-6--4-4-4-4--0-0-0-0--7-7-7-7--2-2-2-2--6-6-6-6--0-0-0-0--2-2-2-2--| 
|-4-4-4-4--------------------------------------4-4-4-4--------------------|

PUENTE

|---------------------------------------------------------|
|---------------------------------------------------------|
|-------2----9----4-----------6-6-6--2-2-2--4-4-4--8-8-8--|
|--6----2----9----4----6-6-4--6-6-6--2-2-2--4-4-4--8-8-8--|
|--6----0----7----2----6-6-4--4-4-6--0-0-0--2-2-2--6-6-6--|
|--4-------------------4-4-4------------------------------|

SOLO 2

   E5 	     G#5	  C#5	   A5	     B5
|--------------------------------------------------|
|--------------------------------------------------|
|-4-4---4---6-6-4---4------------------------------|
|-----6-----------6------6-6-4----4-6-7-6-4---4----|
|------------------------------7------------7------|
|--------------------------------------------------|

   G#5 	      C#5  	 A5	 B5    E5
|--------------------------------------------------|
|--------------/5-7-9-5-10-10-9-7-5-4-5--5---------|
|-4-4----4---6--------------------------4----------|
|-----6--------------------------------------------|
|--------------------------------------------------|
|--------------------------------------------------|

   E5 	       G#5	            C#5	        A5	  B5
|-------------------------------------------------------------------|
|-5-----------5--10--5--9--5--7----5-----------5--9--5--7--9--7-5---|
|---4----4-6-------------------------4------------------------------|
|-----6--------------------------------6h7 6------------------------|
|-------------------------------------------------------------------|
|-------------------------------------------------------------------|

   G#5 	          C#5  	           A5	    B5
|-------------------------------------------------------------------|
|-9--7--5--7--5--5-10--5-9--5-7---9--7--5--7--5---------------------|
|-------------------------------------------------------------------|
|-------------------------------------------------------------------|
|-------------------------------------------------------------------|
|-------------------------------------------------------------------|

	E5			 E5
|-----------------------------------|
|-----------------------------------|
|-----------------------------------|
|--------6----4h6p4-------6---4-----|
|------7---7--------7---7---7---7---|
|-----------------------------------|





Comments


Popular 6 Voltios tabs & chords
Generacion Perdida Bass Tabs
Jodete Bass Tabs
Lejos Bass Tabs
Lejos Chords
Generacion Perdida 2 Tabs
Lejos Tabs
Lejos (Intro) Tabs
Nunca Te Quise Fallar Tabs
Lejos Ukulele
Lukas Ukulele


Song lyrics



↑ Back to top | Tablatures and chords are parodies/interpretations of the original songs. You may use it for private study, scholarship, research or language learning purposes only
© 2014 AZChords.com Contact us | Privacy policy | DMCA | Add/correct tabs | Request tabs | Top 50 tabs