» » »

Sige Tabs (ver.3)

Artists:  A B C D E F G H I J K L M N O P Q R S T U V W X Y Z # 

Sige Tabs (ver.3)

6 Cycle Mind
Rating:
0/5 (0 votes)

Hard to play? Try these video lessons and learn fast.
                (Solo)


|---------------------------------|----------------------------------|
|-------------5-----6-----5-------|-------5-----6-----8-----6---5----|
|-5-----7---------------------7---|-7--------------------------------|
|---5-5---5-5---5-5---5-5---5---5-|---5-5---5-5---5-5---5-5---5---5--|
|---------------------------------|----------------------------------|
|---------------------------------|----------------------------------|


                                                          ~~
|-----------------------------[10]b12--|-------8h10b12===r10------|
|-5h6h8--5h6h8--5h6h8--5h6h8-----------|--/10---------------------|
|--------------------------------------|--------------------------|
|--------------------------------------|--------------------------|
|--------------------------------------|--------------------------|
|--------------------------------------|--------------------------|
                                ^bend harmonic   ^bend immediately as
                                                  you hammer 10th fret


For the next few measures, release the notes as soon as they are played. Use your
index finger to play the 4th string, middle for the 3rd, ring for the 2nd and 1st
strings, and the pinky to hit the 17th fret on the 1st string. It's similar to playing
the intro to Sweet Child O' Mine.

|----------12-15-12----------------12-15-12-------|
|-------15----------15----------15----------15----|
|----14----------------14----14----------------14-|
|-12----------------------12----------------------|
|-------------------------------------------------|
|-------------------------------------------------|


|----------12-17-12----------------12-17-12-------|
|-------15----------15----------15----------15----|
|----14----------------14----14----------------14-|
|-12----------------------12----------------------|
|-------------------------------------------------|
|-------------------------------------------------|


                                       ~~~~~                 ~~~~
|----------12-15-12----------------------------|----------------------*|
|-------15----------15----15b17r15p13--15-15\--|-5s8------------------*|
|----14----------------14----------------------|-----7-5---7b9==r7----*|
|-12-------------------------------------------|---------7------------*|
|----------------------------------------------|----------------------*|
|----------------------------------------------|----------------------*|
                                                             ^long tremolo

Tablature Legend
----------------
 h   - hammer-on
 p   - pull-off
 b   - bend
 r   - bend release
 s   - legato slide
[n]  - artificial harmonic
 ~   - vibrato
 =   - hold bend; also acts as connecting device for hammers/pulls
            
Hard to play? Try these video lessons and learn fast. | Correct




comments powered by Disqus
↑ Back to top | Tablatures and chords are parodies/interpretations of the original songs. You may use it for private study, scholarship, research or language learning purposes only