» » »

Sige Tabs (ver.6)

Artists:  A B C D E F G H I J K L M N O P Q R S T U V W X Y Z # 

Sige Tabs (ver.6)

6 Cycle Mind
Rating:
0/5 (0 votes)

Hard to play? Try these video lessons and learn fast.
                Song Title:  Sige
Found this song kinda unwinding and felt lyk tabbing it so wtheck... here goes... 

INTRO

e--------------|--3-----------|--------------|--------------|
B--------------|--1-----------|--------------|--------------|
G--------------|--0-----------|--5-----------|--------------|
D--------------|--2-----------|--5-----------|--------------|
A--------------|--3-----------|--3-----------|--------------|
E--------------|--------------|--------------|--5--/8-------|
                  v upstroke
e--------------|---------------------|--------------|------------------|
B--------------|---------------------|--------------|------------------|
G--------------|---------------------|--------------|--9~-8~-7~-5~-7~--|
D--------------|---------------------|--------------|------------------|
A--3--0-----0--|--5-6-7--6--5--3--5--|--3--0-----0--|------------------|
E--------3-----|---------------------|--------3-----|------------------|

e--------------|---------------------|--------------|------------------|
B--------------|---------------------|--------------|------------------|
G--------------|---------------------|--------------|--9-8-7--5-7------|
D--------------|---------------------|--------------|--9-8-7--5-7------|
A--3--0-----0--|--5-6-7--6--5--3--5--|--3--0-----0--|--7-6-5--3-5------|
E--------3-----|---------------------|--------3-----|------------------|


VERSE (clean)

   C              E              A              F
e--------------|--------------|--------------|--------------|
B--------------|--------------|--------------|--------------|
G--5-----------|--9-----------|--------------|--------------|
D--5-x8--------|--9-x8--------|--7-----------|--3-----------|
A--3-----------|--7-----------|--7-x8--------|--3-x8--------|
E--------------|--------------|--5-----------|--1-----------|

then repeat w/ distortion strumming each chord once


PRE-CHORUS

e------------------|------------------|
B------------------|------------------|
G------------------|------------------|
D--222222----------|--777777----------|
A--222222----------|--777777--3h4-5h7-|
E--000000--2p0-0h3-|--555555----------|
 pm -----|          pm -----|
     ok lng nmn...

slighty palm-mute some notes

then
e--------------------|
B--------------------|
G--------------------|
D--3-------5---------|
A--3-x8----5-x8------|
E--1-------3---------|
   ...ang nakaraan...


CHORUS

Guitar 1
   C              E              A              F
e--------------|--------------|--------------|--------------|
B--------------|--------------|--------------|--------------|
G--5-----------|--9-----------|--------------|--------------|
D--5-----------|--9-----------|--7-----------|--3----/5-----|
A--3-----------|--7-----------|--7-pause-----|--3----/5-----|
E--------------|--------------|--5-----------|--1----/3-----|
listen to CD for strumming

Guitar 2
   C                              E
e--------------------13p12-----|--------------------13p12-----|
B--------13----------------13--|--------13----------------13--|
G------------------------------|-----12-----------------------|
D--12-14---(x3)----------------|--14------(x3)----------------|
A------------------------------|------------------------------|
E------------------------------|------------------------------|
  ayos lang...                   basta't kasama...

   A                              F
e------------------------------|------------------------------|
B------------------------------|--------13-----------13-------|
G---pause----------------------|--12-14--------12h14----14-12-|
D------------------------------|----------(x3)----------------|
A------------------------------|------------------------------|
E------------------------------|------------------------------|
  kaunting alak lang...          kahit alang pulutan...

   C                              E
e--------------------13p12-----|--------------------13p12-----|
B--------13----------------13--|--------13----------------13--|
G------------------------------|-----12-----------------------|
D--12-14---(x3)----------------|--14------(x3)----------------|
A------------------------------|------------------------------|
E------------------------------|------------------------------|
  ang minsan...                   naaalala...

   A                              F
e--------------------13p12-----|--13p12----12----------13/15--|
B--------13----------------13--|--------13----(x7)------------|
G--12-14-----------------------|------------------------------|
D----------(x3)----------------|------------------------------|
A------------------------------|------------------------------|
E------------------------------|------------------------------|
  di magtatagal...               tayo ay liligaya...


repeat VERSE 2 (distorted)
repeat PRE-CHORUS
repeat CHORUS


SOLO

I'd tab this part, but I'd merely be copying the
work of Josh Bier (Solo Ver 1), which i think is
a real good transcription

BRIDGE

e-----8------8--|-----8------8--|-----8------8--|-----8------8--|
B------8------8-|------8------8-|------8------8-|------8------8-|
G---------------|---------------|---------------|---------------|
D---------------|---------------|---------------|---------------|
A---------------|---------------|--0-------0----|--8-------8----|
E--8-------8----|--0-------0----|---------------|---------------|
                               ...ayos lang...

e---------------|---------------|---55555555----|---------------|
B---------------|---55555555----|---------------|---------------|
G---55555555----|---------------|---------------|---------------|
D---------------|---------------|---------------|--333333-------|
A---------------|---------------|---------------|--333333-------|
E---------------|---------------|---------------|--111111-------|
  slightly palm mute           ...ang minsan...
    
e-----------------------|
B-----------------------|
G-----------------------|
D--3/5-5---3/5-5---3-5--|
A--3/5-5---3/5-5---3-5--|
E--1/3-3---1/3-3---1-3--|

repeat CHORUS (w/o pause)
repeat INTRO riff variant

dat's all i've come up with, not sure, im only human, neway NJoy peepz...
im still freakin bandless...
            
Hard to play? Try these video lessons and learn fast. | Correct




comments powered by Disqus
↑ Back to top | Tablatures and chords are parodies/interpretations of the original songs. You may use it for private study, scholarship, research or language learning purposes only