» » »

Prinsesa Tabs (ver.2)

Artists:  A B C D E F G H I J K L M N O P Q R S T U V W X Y Z # 

Prinsesa Tabs (ver.2)

6 Cycle Mind
Rating:
0/5 (0 votes)

Hard to play? Try these video lessons and learn fast.
                

Weeeeeeeeee!!! Astig ang kantang to!!! Simple pero powerful, pwedeng nyong mapasagot ang
nililigawan nyo hehehe... (Basta't may dala kayong shokolate at bolaklak at tatlong
ng kapal ng mukha hehehe)

This song is dedicated sa lahat ng mga prinsesa ng ACLC Lipa Branch! Keep voting this song!!!

Introduksyon: (CP) D - D/C# - C - G

* Hangga't maari e plucking lang o puro base lang (for guitar 2) para wakustik na 
ang dating

Guitar 1:

e|-----------11-11/13-----------11-11/13-----------11-13-13/14-14-11-13-----|
B|-14~----14----------14~----14----------14~----14----------------------14~-|
G|-----13-----------------13-----------------13-----------------------------|
D|--------------------------------------------------------------------------| x2
A|--------------------------------------------------------------------------|
E|--------------------------------------------------------------------------|

e|--------|
B|----14~-|
G|-13-----|
D|--------|
A|--------|
E|--------|


Bersikulo Uno: (CP) D - D/C# - C - G
												      3
* Pwede rin kayo gumawa ng sarili nyong version ng plucks sa mga verse basta't andun ung 
notes (ung 2)

e|----------------------------3-2-3~-|        e|----------------------------3-2-0-----|
B|---3---3----3---3----3---3--3-3-3~-|        B|---3---3----3---3----3---3--------3---|
G|---2---2----2---2----2---2---------|        G|---2---2----2---2----2---2------------|
D|-0---0-----------------------------| x3     D|-0---0--------------------------------|
A|----------4---4----3---3-----------|        A|----------4---4----3---3--------------|
E|-----------------------------------|        E|--------------------------------------|
     .   .    .   .    .   .  . . 		     .   .    .   .    .   .
Nakaupo s'ya sa isang madilim na sulok
Ewan ko ba kung bakit sa libu-libong babaing nandoon
Wala pang isang minuto
Nahulog na ang loob ko sa 'yo

e|----------------------------3-2-3~-|        e|----------------------------3-2-0---|
B|---3---3----3---3----3---3--3-3-3~-|        B|---3---3----3---3----3---3----------|
G|---2---2----2---2----2---2---------|        G|---2---2----2---2----2---2----------|
D|-0---0-----------------------------| x3     D|-0---0------------------------------|
A|----------4---4----3---3-----------|        A|----------4---4----3---3------------|
E|-----------------------------------|        E|------------------------------------|
     .   .    .   .    .   .  . . 		     .   .    .   .    .   .
Gusto ko sanang marinig ang tinig mo
Umasa na rin na sana'y mahawakan ko ang palad mo
Gusto ko sanang lumapit
Kung di lang sa lalaking kayakap mo-ho o-o-oh.


Koro Uno: (CP) A - D

* Ang pinakamadaling parte. Mag-imbento na lang kayo ng sari-sarili nyong plucks dito.

Dalhin mo ako sa iyong palasyo
Maglakad tayo sa hardin ng yong kaharian
Wala man akong pag-aari
Pangako kong habangbuhay kitang pagsisilbihan

G-Gm
e|-3~---------------|
B|-3~---5/6-5-------|
G|-4~---------7-5---|
D|-5~-------------5-|
A|-5~---------------|
E|-3~---------------|
O aking prinsesa...ahaaa

e|-----------11-11/13-----------11-11/13-----------11-13-13/14-14-11-13-----|
B|-14~----14----------14~----14----------14~----14----------------------14~-|
G|-----13-----------------13-----------------13-----------------------------|
D|--------------------------------------------------------------------------| x2 Do 
Uno CP
A|--------------------------------------------------------------------------|
E|--------------------------------------------------------------------------|
Prinsesa... Prinsesa... Prinsesa...


Adlib: (CP) D - D/C# - C - G

* Pluck nyo lang ung CP

e|--------------------------|
B|-6-7-9-9/11-9-7-9---7p6---|
G|------------------6-----6-|
D|--------------------------|
A|--------------------------|
E|--------------------------|

e|--------------------------11-13-13/14~-|
B|-6-7-9-9/11-9-7-9---7p6----------------|
G|------------------6-----6--------------|
D|---------------------------------------|
A|---------------------------------------|
E|---------------------------------------|


Bersikulo Dos: (CP) D - D/C# - C - G

e|----------------------------3-2-3~-|        e|----------------------------3-2-0-----|
B|---3---3----3---3----3---3--3-3-3~-|        B|---3---3----3---3----3---3--------3---|
G|---2---2----2---2----2---2---------|        G|---2---2----2---2----2---2------------|
D|-0---0-----------------------------| x3     D|-0---0--------------------------------|
A|----------4---4----3---3-----------|        A|----------4---4----3---3--------------|
E|-----------------------------------|        E|--------------------------------------|
     .   .    .   .    .   .  . . 		     .   .    .   .    .   .
Di ako makatulog
Naisip ko ang ningning ng yong mata
Nasa isip kita buong umaga buong magdamag
Sana'y parati kang tanaw
O ang sakit isipin ito'y isang panaginip
Panaginip lang


Koro Dos: (CP) A - D

* Ka-Palm myuuuuuut!!!

Dalhin mo ako sa iyong palasyo
Maglakad tayo sa hardin ng yong kaharian
Wala man akong pag-aari
Pangako kong habangbuhay kitang pagsisilbihan

G-Gm
e|-3~---------------|
B|-3~---5/6-5-------|
G|-4~---------7-5---|
D|-5~-------------5-|
A|-5~---------------|
E|-3~---------------|
O aking prinsesa...ahaaa

D - D/C# - C - G (Pluck You!) x4
Prinsesa... Prinsesa... Prinsesa...


Outro:


*This is 85% sure... Yung ibang notes e invent nyo na lang. Kung marunong sa scale mas
magaling, magaling...

e|---------------------------------------------------7-10~----7-9-10-12-7--7-9-9-11-13-14-------------|
B|---------------------------7-7-------------------7--------7-----------------------------------------|
G|-----7~--9b7---7~------7/9-----9-9-----7~----7-9-----------------------------------------9p7-----7~-|

Do Bersikulo Uno CP
A|----------------------------------------------------------------------------------------------------|
E|----------------------------------------------------------------------------------------------------|

e|-----------11-11/13-----------11-11/13-----------11-13-13/14-14-11-13-----|
B|-14~----14----------14~----14----------14~----14----------------------14~-|
G|-----13-----------------13-----------------13-----------------------------|
D|--------------------------------------------------------------------------| x2 Do 
Uno CP
A|--------------------------------------------------------------------------|
E|--------------------------------------------------------------------------|

End with a malanding strum sa D chord
            
Hard to play? Try these video lessons and learn fast. | Correct




comments powered by Disqus
↑ Back to top | Tablatures and chords are parodies/interpretations of the original songs. You may use it for private study, scholarship, research or language learning purposes only