>
 >
I

I Guitar Tabs

6 Cycle Mind - I chords, tabs, tablatures, lyrics

Guitar lessons | Add/correct | Request | Top 50 tabs Artists:  A B C D E F G H I J K L M N O P Q R S T U V W X Y Z 0-9

I Guitar Tabs – 6 Cycle Mind

CD, Sheet music, Poster

Do you like I? Share with your friends now
ChordsChords v2TabsTabs v2Ukulele
Title       : I
Artist      : 6 cycle mind
Album       : Panorama




This is the second single from the album panorama of 6 cycle mind.
GAnda din to. Sana magustuhan nyo.

Ung tuning dito parang ung sandalan din, HALF STEP DOWN ung ginamit. 
Kung di nyo po alam un. Di nyo makukuha yung song. kase pag standard Tuning ung gitara
tataas ng isang key ung kanta.

Please Rate this tab.

Ang ibig sabihin  ng half step down, mas mababa ng isang key 
ung tuning ng gitara. 
Pag di nyo alam,there are 3 steps para malaman.

1. Gumamit ng keyboard or piano tapos isa isahin na timplahin ung mga strings
2. Pwede rin gumamit ng tuner para mas madali,
   madame mabibili nun sa mga music store.
3. Lastly, Magtanong na lang kayo sa mga may alam kung paano un.


This song goes to Karla Pandacan!

Original key is  G# (kung standard tuning ung gamit na gitara)


------------------
HALF STEP DOWN    | 
Eb Ab Db Gb Bb Eb |
------------------


SA verse, Clean ung Lead guitar at rhythm guitar

Intro: A - D2

Guitar 1: Lead Guitar

eb|-----------5-----------|-----------5--------------|
Bb|-----------------------|--------3-----------------|
Gb|--------4--------------|-----2--------------------|
Db|-----7-----------------|--0-----------------------|  
Ab|--0--------------------|--------------------------|
Eb|-----------------------|--------------------------|

Guitar 2: Rhythm Guitar

eb|--0----------------0---|--------------------------|
Bb|--0-----0---0---0----0-|--------3----------2h3p2--|
Gb|--2--2-----2---2-------|-----2-----2-2------------|
Db|--2--------------------|--0-----------------------|  
Ab|--0--------------------|--------------------------|
Eb|-----------------------|--------------------------|

Guitar 1: Lead Guitar

eb|-----------5-----------|-----------5--------------|
Bb|-----------------------|--------3-----------------|
Gb|--------4--------------|-----2--------------------|
Db|-----7-----------------|--0-----------------------|  
Ab|--0--------------------|--------------------------|
Eb|-----------------------|--------------------------|


Guitar 2: Rhythm Guitar

eb|--0----------------0---|--------------------------|
Bb|--0-----0---0---0----0-|--------3----------2h3p2--|
Gb|--2--2-----2---2-------|-----2-----2-2------------|
Db|--2--------------------|--0-----------------------|  
Ab|--0--------------------|--------------------------|
Eb|-----------------------|--------------------------|

------------------------------------------
Strumming ung Rhythm guitar sa buong kanta| 
------------------------------------------


Verse 1: 

Guitar 1: Lead Guitar

eb|-----------5-----------|--------------------------|
Bb|-----------------------|--------3--2--------------|
Gb|--------4--------------|-----2--------------------|
Db|-----7-----------------|--0-----------------------|  
Ab|--0--------------------|--------------------------|
Eb|-----------------------|--------------------------|

Guitar 2: Rhythm Guitar

eb|---0-------------------|---5----------------------|
Bb|---2-------------------|---5----------------------|
Gb|---2-------------------|---7----------------------|
Db|---2-------------------|---7----------------------|  
Ab|---0-------------------|---5----------------------|
Eb|-----------------------|--------------------------|
     Ay                wag naman
    


Guitar 1: Lead Guitar

eb|------------4----------|-------------5------------|
Bb|------------5----------|--------------------------|
Gb|--------6--------------|---------2----------------|
Db|-----6-----------------|------4-------------------|  
Ab|--4--------------------|---2----------------------|
Eb|-----------------------|--------------------------|

Guitar 2: Rhythm Guitar

eb|--4-------------------|----2------------------------|
Bb|--5-------------------|----3------------------------|
Gb|--6-------------------|----4------------------------|
Db|--6-------------------|----4------------------------|  
Ab|--4-------------------|----2------------------------|
Eb|----------------------|-----------------------------|
   alisin   ang       Nag iisang panaginip



Guitar 1: Lead Guitar

eb|-----------5-----------|--------------------------|
Bb|-----------------------|--------3--2--------------|
Gb|--------4--------------|-----2--------------------|
Db|-----7-----------------|--0-----------------------|  
Ab|--0--------------------|--------------------------|
Eb|-----------------------|--------------------------|

Guitar 2: Rhythm Guitar

eb|---0-------------------|---5----------------------|
Bb|---2-------------------|---5----------------------|
Gb|---2-------------------|---7----------------------|
Db|---2-------------------|---7----------------------|  
Ab|---0-------------------|---5----------------------|
Eb|-----------------------|--------------------------|
  na ika'y            magbabalik



Guitar 1: Lead Guitar

eb|------------4----------|-------------5------5------|
Bb|------------5----------|--------------------7------|
Gb|--------6--------------|---------3----------6------|
Db|-----6-----------------|------2-------------6------|  
Ab|--4--------------------|---0----------------5------|
Eb|-----------------------|---------------------------|

Guitar 2: Rhythm Guitar

eb|--4-------------------|----5----------------5---p-----|
Bb|--5-------------------|----5----------------6---a-----|
Gb|--6-------------------|----7----------------7---u-----|
Db|--6-------------------|----7----------------7---s-----|  
Ab|--4-------------------|----5----------------5---e-----|
Eb|----------------------|-------------------------------|
  Nagsasamang masaya     At walang  pagkukulang...   



-------------------------------------------
Chorus: May Distortion na yung Lead guitar |
-------------------------------------------


Guitar 1: Lead Guitar

eb|---------------------|----------------------------|
Bb|---------------------|----------------------------|
Gb|-4-4-4-4-4-4-4-4-----|-6-6-6-6-6-6-6-6------------|
Db|-4-4-4-4-4-4-4-4-----|-6-6-6-6-6-6-6-6------------|  
Ab|-2-2-2-2-2-2-2-2-----|-4-4-4-4-4-4-4-4------------|
Eb|---------------------|----------------------------|

Guitar 2: Rhythm Guitar

eb|-2-2-2-2-2-2-2-2-----|-4-4-4-4-4-4-4-4------------|
Bb|-3-3-3-3-3-3-3-3-----|-5-5-5-5-5-5-5-5------------|
Gb|-4-4-4-4-4-4-4-4-----|-6-6-6-6-6-6-6-6------------|
Db|-4-4-4-4-4-4-4-4-----|-6-6-6-6-6-6-6-6------------|  
Ab|-2-2-2-2-2-2-2-2-----|-4-4-4-4-4-4-4-4------------|
Eb|---------------------|----------------------------|
 
    At ngayong wala ka       na.......



Guitar 1: Lead Guitar

eb|---------------------|----------------------------|
Bb|---------------------|----------------------------|
Gb|-4-4-4-4-4-4-4-4-----|-6-6-6-6-6-6-6-6------------|
Db|-4-4-4-4-4-4-4-4-----|-6-6-6-6-6-6-6-6------------|  
Ab|-2-2-2-2-2-2-2-2-----|-4-4-4-4-4-4-4-4------------|
Eb|---------------------|----------------------------|

Guitar 2: Rhythm Guitar

eb|-2-2-2-2-2-2-2-2-----|-4-4-4-4-4-4-4-4------------|
Bb|-3-3-3-3-3-3-3-3-----|-5-5-5-5-5-5-5-5------------|
Gb|-4-4-4-4-4-4-4-4-----|-6-6-6-6-6-6-6-6------------|
Db|-4-4-4-4-4-4-4-4-----|-6-6-6-6-6-6-6-6------------|  
Ab|-2-2-2-2-2-2-2-2-----|-4-4-4-4-4-4-4-4------------|
Eb|---------------------|----------------------------|

  Hindi alam kung saan   magsisimula...



Guitar 1: Lead Guitar

eb|---------------------|----------------------------|
Bb|---------------------|----------------------------|
Gb|-4-4-4-4-4-4-4-4-----|-6-6-6-6-6-6-6-6------------|
Db|-4-4-4-4-4-4-4-4-----|-6-6-6-6-6-6-6-6------------|  
Ab|-2-2-2-2-2-2-2-2-----|-4-4-4-4-4-4-4-4------------|
Eb|---------------------|----------------------------|

Guitar 2: Rhythm Guitar

eb|-2-2-2-2-2-2-2-2-----|-4-4-4-4-4-4-4-4------------|
Bb|-3-3-3-3-3-3-3-3-----|-5-5-5-5-5-5-5-5------------|
Gb|-4-4-4-4-4-4-4-4-----|-6-6-6-6-6-6-6-6------------|
Db|-4-4-4-4-4-4-4-4-----|-6-6-6-6-6-6-6-6------------|  
Ab|-2-2-2-2-2-2-2-2-----|-4-4-4-4-4-4-4-4------------|
Eb|---------------------|----------------------------|

   Ang ngayon, bukas,       kailanman nag 



Guitar 1: Lead Guitar

eb|---------------------|---------5--------------------------|
Bb|---------------------|---------6--------------------------|
Gb|-7-7-7-7-7-7-7-7-----|---------7--------------------------|
Db|-7-7-7-7-7-7-7-7-----|---------7--------------------------|  
Ab|-5-5-5-5-5-5-5-5-----|---------5--------------------------|
Eb|---------------------|------------------------------------|

Guitar 2: Rhythm Guitar

eb|-5-5-5-5-5-5-5-5-----|---------5--------------------------|
Bb|-5-5-5-5-5-5-5-5-----|---------6--------------------------|
Gb|-7-7-7-7-7-7-7-7-----|---------7--------------------------|
Db|-7-7-7-7-7-7-7-7-----|---------7--------------------------|  
Ab|-5-5-5-5-5-5-5-5-----|---------5--------------------------|
Eb|---------------------|------------------------------------|
      
    iba...                     wala bang bukas


----------
Interlude:|
----------

Guitar 1: Lead Guitar

eb|-----------5-----------|-----------5--------------|
Bb|-----------------------|--------3-----------------|
Gb|--------4--------------|-----2--------------------|
Db|-----7-----------------|--0-----------------------|  
Ab|--0--------------------|--------------------------|
Eb|-----------------------|--------------------------|

Guitar 2: Rhythm Guitar

eb|--0----------------0---|--------------------------|
Bb|--0-----0---0---0----0-|--------3----------2h3p2--|
Gb|--2--2-----2---2-------|-----2-----2-2------------|
Db|--2--------------------|--0-----------------------|  
Ab|--0--------------------|--------------------------|
Eb|-----------------------|--------------------------|

Guitar 1: Lead Guitar

eb|-----------5-----------|-----------5--------------|
Bb|-----------------------|--------3-----------------|
Gb|--------4--------------|-----2--------------------|
Db|-----7-----------------|--0-----------------------|  
Ab|--0--------------------|--------------------------|
Eb|-----------------------|--------------------------|


Guitar 2: Rhythm Guitar

eb|--0----------------0---|--------------------------|
Bb|--0-----0---0---0----0-|--------3----------2h3p2--|
Gb|--2--2-----2---2-------|-----2-----2-2------------|
Db|--2--------------------|--0-----------------------|  
Ab|--0--------------------|--------------------------|
Eb|-----------------------|--------------------------|


--------
Verse 2:|
--------

Clean ulit ung lead guitar

Guitar 1: Lead Guitar

eb|-----------5-----------|--------------------------|
Bb|-----------------------|--------3--2--------------|
Gb|--------4--------------|-----2--------------------|
Db|-----7-----------------|--0-----------------------|  
Ab|--0--------------------|--------------------------|
Eb|-----------------------|--------------------------|

Guitar 2: Rhythm Guitar

eb|---0-------------------|---5----------------------|
Bb|---2-------------------|---5----------------------|
Gb|---2-------------------|---7----------------------|
Db|---2-------------------|---7----------------------|  
Ab|---0-------------------|---5----------------------|
Eb|-----------------------|--------------------------|
     Ay                Bahala na
    


Guitar 1: Lead Guitar

eb|------------4----------|-------------5------------|
Bb|------------5----------|--------------------------|
Gb|--------6--------------|---------2----------------|
Db|-----6-----------------|------4-------------------|  
Ab|--4--------------------|---2----------------------|
Eb|-----------------------|--------------------------|

Guitar 2: Rhythm Guitar

eb|--4-------------------|----2------------------------|
Bb|--5-------------------|----3------------------------|
Gb|--6-------------------|----4------------------------|
Db|--6-------------------|----4------------------------|  
Ab|--4-------------------|----2------------------------|
Eb|----------------------|-----------------------------|
   Ang tanging naririnig  Wala ka bang ibang masabi



Guitar 1: Lead Guitar

eb|-----------5-----------|--------------------------|
Bb|-----------------------|--------3--2--------------|
Gb|--------4--------------|-----2--------------------|
Db|-----7-----------------|--0-----------------------|  
Ab|--0--------------------|--------------------------|
Eb|-----------------------|--------------------------|

Guitar 2: Rhythm Guitar

eb|---0-------------------|---5----------------------|
Bb|---2-------------------|---5----------------------|
Gb|---2-------------------|---7----------------------|
Db|---2-------------------|---7----------------------|  
Ab|---0-------------------|---5----------------------|
Eb|-----------------------|--------------------------|
 huwag ka nang mag          alala



Guitar 1: Lead Guitar

eb|------------4----------|-------------5------5------|
Bb|------------5----------|--------------------7------|
Gb|--------6--------------|---------3----------6------|
Db|-----6-----------------|------2-------------6------|  
Ab|--4--------------------|---0----------------5------|
Eb|-----------------------|---------------------------|

Guitar 2: Rhythm Guitar

eb|--4-------------------|----5----------------5---p-----|
Bb|--5-------------------|----5----------------6---a-----|
Gb|--6-------------------|----7----------------7---u-----|
Db|--6-------------------|----7----------------7---s-----|  
Ab|--4-------------------|----5----------------5---e-----|
Eb|----------------------|-------------------------------|
  iniintindi ko          Ang lungkot na ginawa mo.


-------------------------------------------
Chorus: May Distortion na yung Lead guitar |
-------------------------------------------


Guitar 1: Lead Guitar

eb|---------------------|----------------------------|
Bb|---------------------|----------------------------|
Gb|-4-4-4-4-4-4-4-4-----|-6-6-6-6-6-6-6-6------------|
Db|-4-4-4-4-4-4-4-4-----|-6-6-6-6-6-6-6-6------------|  
Ab|-2-2-2-2-2-2-2-2-----|-4-4-4-4-4-4-4-4------------|
Eb|---------------------|----------------------------|

Guitar 2: Rhythm Guitar

eb|-2-2-2-2-2-2-2-2-----|-4-4-4-4-4-4-4-4------------|
Bb|-3-3-3-3-3-3-3-3-----|-5-5-5-5-5-5-5-5------------|
Gb|-4-4-4-4-4-4-4-4-----|-6-6-6-6-6-6-6-6------------|
Db|-4-4-4-4-4-4-4-4-----|-6-6-6-6-6-6-6-6------------|  
Ab|-2-2-2-2-2-2-2-2-----|-4-4-4-4-4-4-4-4------------|
Eb|---------------------|----------------------------|
 
    At ngayong wala ka       na.......



Guitar 1: Lead Guitar

eb|---------------------|----------------------------|
Bb|---------------------|----------------------------|
Gb|-4-4-4-4-4-4-4-4-----|-6-6-6-6-6-6-6-6------------|
Db|-4-4-4-4-4-4-4-4-----|-6-6-6-6-6-6-6-6------------|  
Ab|-2-2-2-2-2-2-2-2-----|-4-4-4-4-4-4-4-4------------|
Eb|---------------------|----------------------------|

Guitar 2: Rhythm Guitar

eb|-2-2-2-2-2-2-2-2-----|-4-4-4-4-4-4-4-4------------|
Bb|-3-3-3-3-3-3-3-3-----|-5-5-5-5-5-5-5-5------------|
Gb|-4-4-4-4-4-4-4-4-----|-6-6-6-6-6-6-6-6------------|
Db|-4-4-4-4-4-4-4-4-----|-6-6-6-6-6-6-6-6------------|  
Ab|-2-2-2-2-2-2-2-2-----|-4-4-4-4-4-4-4-4------------|
Eb|---------------------|----------------------------|

  Hindi alam kung saan   magsisimula...



Guitar 1: Lead Guitar

eb|---------------------|----------------------------|
Bb|---------------------|----------------------------|
Gb|-4-4-4-4-4-4-4-4-----|-6-6-6-6-6-6-6-6------------|
Db|-4-4-4-4-4-4-4-4-----|-6-6-6-6-6-6-6-6------------|  
Ab|-2-2-2-2-2-2-2-2-----|-4-4-4-4-4-4-4-4------------|
Eb|---------------------|----------------------------|

Guitar 2: Rhythm Guitar

eb|-2-2-2-2-2-2-2-2-----|-4-4-4-4-4-4-4-4------------|
Bb|-3-3-3-3-3-3-3-3-----|-5-5-5-5-5-5-5-5------------|
Gb|-4-4-4-4-4-4-4-4-----|-6-6-6-6-6-6-6-6------------|
Db|-4-4-4-4-4-4-4-4-----|-6-6-6-6-6-6-6-6------------|  
Ab|-2-2-2-2-2-2-2-2-----|-4-4-4-4-4-4-4-4------------|
Eb|---------------------|----------------------------|

   Ang ngayon, bukas,       kailanman nag 



Guitar 1: Lead Guitar

eb|---------------------|-----------------------------------|
Bb|---------------------|---------2h3-2-----0-2-------------|
Gb|-7-7-7-7-7-7-7-7-----|----------------2------------------|
Db|-7-7-7-7-7-7-7-7-----|-----------------------------------|  
Ab|-5-5-5-5-5-5-5-5-----|-----------------------------------|
Eb|---------------------|-----------------------------------|

Guitar 2: Rhythm Guitar

eb|-5-5-5-5-5-5-5-5-----|---------5--------------------------|
Bb|-5-5-5-5-5-5-5-5-----|---------6--------------------------|
Gb|-7-7-7-7-7-7-7-7-----|---------7--------------------------|
Db|-7-7-7-7-7-7-7-7-----|---------7--------------------------|  
Ab|-5-5-5-5-5-5-5-5-----|---------5--------------------------|
Eb|---------------------|------------------------------------|
      
    iba...                         wala bang 

-----
ADlib|
-----


Guitar 1: Lead Guitar (with distortion)

/ slide

  bukas
eb|------14----16--17--16-14-|-----14----16--19--16--17-----|
Bb|-/17-----17---------------|-17-----17--------------------|
Gb|--------------------------|------------------------------|
Db|--------------------------|------------------------------|  
Ab|--------------------------|------------------------------|
Eb|--------------------------|------------------------------|

Guitar 2: Rhythm Guitar
eb|---0----------------------|-5---------------------------|
Bb|---2----------------------|-5---------------------------|
Gb|---2----------------------|-7---------------------------|
Db|---2----------------------|-7---------------------------|  
Ab|---0----------------------|-5---------------------------|
Eb|--------------------------|-----------------------------|


Guitar 1: Lead Guitar(with distortion)

v vibrate

eb|-21--19--17--19------|-/-21--19--17--19v----------|
Bb|---------------------|----------------------------|
Gb|---------------------|----------------------------|
Db|---------------------|----------------------------|  
Ab|---------------------|----------------------------|
Eb|---------------------|----------------------------|

Guitar 2: Rhythm Guitar
eb|--4------------------|---0-------------------------|
Bb|--5------------------|---3-------------------------|
Gb|--6------------------|---2-------------------------|
Db|--6------------------|---0-------------------------|  
Ab|--4------------------|-----------------------------|
Eb|---------------------|-----------------------------|



Chorus:


Guitar 1: Lead Guitar

eb|---------------------|----------------------------|
Bb|---------------------|----------------------------|
Gb|-4-4-4-4-4-4-4-4-----|-6-6-6-6-6-6-6-6------------|
Db|-4-4-4-4-4-4-4-4-----|-6-6-6-6-6-6-6-6------------|  
Ab|-2-2-2-2-2-2-2-2-----|-4-4-4-4-4-4-4-4------------|
Eb|---------------------|----------------------------|

Guitar 2: Rhythm Guitar

eb|-2-2-2-2-2-2-2-2-----|-4-4-4-4-4-4-4-4------------|
Bb|-3-3-3-3-3-3-3-3-----|-5-5-5-5-5-5-5-5------------|
Gb|-4-4-4-4-4-4-4-4-----|-6-6-6-6-6-6-6-6------------|
Db|-4-4-4-4-4-4-4-4-----|-6-6-6-6-6-6-6-6------------|  
Ab|-2-2-2-2-2-2-2-2-----|-4-4-4-4-4-4-4-4------------|
Eb|---------------------|----------------------------|
 
    At ngayong wala ka       na.......



Guitar 1: Lead Guitar

eb|---------------------|----------------------------|
Bb|---------------------|----------------------------|
Gb|-4-4-4-4-4-4-4-4-----|-6-6-6-6-6-6-6-6------------|
Db|-4-4-4-4-4-4-4-4-----|-6-6-6-6-6-6-6-6------------|  
Ab|-2-2-2-2-2-2-2-2-----|-4-4-4-4-4-4-4-4------------|
Eb|---------------------|----------------------------|

Guitar 2: Rhythm Guitar

eb|-2-2-2-2-2-2-2-2-----|-4-4-4-4-4-4-4-4------------|
Bb|-3-3-3-3-3-3-3-3-----|-5-5-5-5-5-5-5-5------------|
Gb|-4-4-4-4-4-4-4-4-----|-6-6-6-6-6-6-6-6------------|
Db|-4-4-4-4-4-4-4-4-----|-6-6-6-6-6-6-6-6------------|  
Ab|-2-2-2-2-2-2-2-2-----|-4-4-4-4-4-4-4-4------------|
Eb|---------------------|----------------------------|

  Hindi alam kung saan   magsisimula...



Guitar 1: Lead Guitar

eb|---------------------|----------------------------|
Bb|---------------------|----------------------------|
Gb|-4-4-4-4-4-4-4-4-----|-6-6-6-6-6-6-6-6------------|
Db|-4-4-4-4-4-4-4-4-----|-6-6-6-6-6-6-6-6------------|  
Ab|-2-2-2-2-2-2-2-2-----|-4-4-4-4-4-4-4-4------------|
Eb|---------------------|----------------------------|

Guitar 2: Rhythm Guitar

eb|-2-2-2-2-2-2-2-2-----|-4-4-4-4-4-4-4-4------------|
Bb|-3-3-3-3-3-3-3-3-----|-5-5-5-5-5-5-5-5------------|
Gb|-4-4-4-4-4-4-4-4-----|-6-6-6-6-6-6-6-6------------|
Db|-4-4-4-4-4-4-4-4-----|-6-6-6-6-6-6-6-6------------|  
Ab|-2-2-2-2-2-2-2-2-----|-4-4-4-4-4-4-4-4------------|
Eb|---------------------|----------------------------|

   Ang ngayon, bukas,       kailanman nag 



Guitar 1: Lead Guitar

eb|---------------------|
Bb|---------------------|
Gb|-7-7-7-7-7-7-7-7-----|
Db|-7-7-7-7-7-7-7-7-----| 
Ab|-5-5-5-5-5-5-5-5-----|
Eb|---------------------|

Guitar 2: Rhythm Guitar

eb|-5-5-5-5-5-5-5-5-----|
Bb|-5-5-5-5-5-5-5-5-----|
Gb|-7-7-7-7-7-7-7-7-----|
Db|-7-7-7-7-7-7-7-7-----|  
Ab|-5-5-5-5-5-5-5-5-----|
Eb|---------------------|
      
    iba...                    
-----------------------------------------------------------------
Chorus: Soft lang ung strumming ng lead guitar at ryhthm guitar  |
        WAlang drums                                              |
-----------------------------------------------------------------

Guitar 1: Lead Guitar

eb|---------------------|----------------------------|
Bb|---------------------|----------------------------|
Gb|-4-4-4-4-4-4-4-4-----|-6-6-6-6-6-6-6-6------------|
Db|-4-4-4-4-4-4-4-4-----|-6-6-6-6-6-6-6-6------------|  
Ab|-2-2-2-2-2-2-2-2-----|-4-4-4-4-4-4-4-4------------|
Eb|---------------------|----------------------------|

Guitar 2: Rhythm Guitar

eb|-2-2-2-2-2-2-2-2-----|-4-4-4-4-4-4-4-4------------|
Bb|-3-3-3-3-3-3-3-3-----|-5-5-5-5-5-5-5-5------------|
Gb|-4-4-4-4-4-4-4-4-----|-6-6-6-6-6-6-6-6------------|
Db|-4-4-4-4-4-4-4-4-----|-6-6-6-6-6-6-6-6------------|  
Ab|-2-2-2-2-2-2-2-2-----|-4-4-4-4-4-4-4-4------------|
Eb|---------------------|----------------------------|
 
    At ngayong wala ka       na.......



Guitar 1: Lead Guitar

eb|---------------------|----------------------------|
Bb|---------------------|----------------------------|
Gb|-4-4-4-4-4-4-4-4-----|-6-6-6-6-6-6-6-6------------|
Db|-4-4-4-4-4-4-4-4-----|-6-6-6-6-6-6-6-6------------|  
Ab|-2-2-2-2-2-2-2-2-----|-4-4-4-4-4-4-4-4------------|
Eb|---------------------|----------------------------|

Guitar 2: Rhythm Guitar

eb|-2-2-2-2-2-2-2-2-----|-4-4-4-4-4-4-4-4------------|
Bb|-3-3-3-3-3-3-3-3-----|-5-5-5-5-5-5-5-5------------|
Gb|-4-4-4-4-4-4-4-4-----|-6-6-6-6-6-6-6-6------------|
Db|-4-4-4-4-4-4-4-4-----|-6-6-6-6-6-6-6-6------------|  
Ab|-2-2-2-2-2-2-2-2-----|-4-4-4-4-4-4-4-4------------|
Eb|---------------------|----------------------------|

  Hindi alam kung saan   magsisimula...



Guitar 1: Lead Guitar

eb|---------------------|----------------------------|
Bb|---------------------|----------------------------|
Gb|-4-4-4-4-4-4-4-4-----|-6-6-6-6-6-6-6-6------------|
Db|-4-4-4-4-4-4-4-4-----|-6-6-6-6-6-6-6-6------------|  
Ab|-2-2-2-2-2-2-2-2-----|-4-4-4-4-4-4-4-4------------|
Eb|---------------------|----------------------------|

Guitar 2: Rhythm Guitar

eb|-2-2-2-2-2-2-2-2-----|-4-4-4-4-4-4-4-4------------|
Bb|-3-3-3-3-3-3-3-3-----|-5-5-5-5-5-5-5-5------------|
Gb|-4-4-4-4-4-4-4-4-----|-6-6-6-6-6-6-6-6------------|
Db|-4-4-4-4-4-4-4-4-----|-6-6-6-6-6-6-6-6------------|  
Ab|-2-2-2-2-2-2-2-2-----|-4-4-4-4-4-4-4-4------------|
Eb|---------------------|----------------------------|

   Ang ngayon, bukas,       kailanman nag 



Guitar 1: Lead Guitar

eb|---------------------|
Bb|---------------------|
Gb|-7-7-7-7-7-7-7-7-----|
Db|-7-7-7-7-7-7-7-7-----| 
Ab|-5-5-5-5-5-5-5-5-----|
Eb|---------------------|

Guitar 2: Rhythm Guitar

eb|-5-5-5-5-5-5-5-5-----|
Bb|-5-5-5-5-5-5-5-5-----|
Gb|-7-7-7-7-7-7-7-7-----|
Db|-7-7-7-7-7-7-7-7-----|  
Ab|-5-5-5-5-5-5-5-5-----|
Eb|---------------------|
      
    iba...                    


Chords used:

D2 : XX0320

Coda:

A
paulit ulit (wala bang bukas)

D2
  mananaginip (wala bang bukas)

C#m
  paggising ko'y (wala bang bukas)

D2
 wala pa din (wala bang bukas)

A              D2
 hindi maamin ilang dalangin (wala bang bukas)

C#m           D2
 wala na wala ka wala na



-------------------------------------------
Chorus: May Distortion na yung Lead guitar |
-------------------------------------------


Guitar 1: Lead Guitar

eb|---------------------|----------------------------|
Bb|---------------------|----------------------------|
Gb|-4-4-4-4-4-4-4-4-----|-6-6-6-6-6-6-6-6------------|
Db|-4-4-4-4-4-4-4-4-----|-6-6-6-6-6-6-6-6------------|  
Ab|-2-2-2-2-2-2-2-2-----|-4-4-4-4-4-4-4-4------------|
Eb|---------------------|----------------------------|

Guitar 2: Rhythm Guitar

eb|-2-2-2-2-2-2-2-2-----|-4-4-4-4-4-4-4-4------------|
Bb|-3-3-3-3-3-3-3-3-----|-5-5-5-5-5-5-5-5------------|
Gb|-4-4-4-4-4-4-4-4-----|-6-6-6-6-6-6-6-6------------|
Db|-4-4-4-4-4-4-4-4-----|-6-6-6-6-6-6-6-6------------|  
Ab|-2-2-2-2-2-2-2-2-----|-4-4-4-4-4-4-4-4------------|
Eb|---------------------|----------------------------|
 
    At ngayong wala ka       na.......



Guitar 1: Lead Guitar

eb|---------------------|----------------------------|
Bb|---------------------|----------------------------|
Gb|-4-4-4-4-4-4-4-4-----|-6-6-6-6-6-6-6-6------------|
Db|-4-4-4-4-4-4-4-4-----|-6-6-6-6-6-6-6-6------------|  
Ab|-2-2-2-2-2-2-2-2-----|-4-4-4-4-4-4-4-4------------|
Eb|---------------------|----------------------------|

Guitar 2: Rhythm Guitar

eb|-2-2-2-2-2-2-2-2-----|-4-4-4-4-4-4-4-4------------|
Bb|-3-3-3-3-3-3-3-3-----|-5-5-5-5-5-5-5-5------------|
Gb|-4-4-4-4-4-4-4-4-----|-6-6-6-6-6-6-6-6------------|
Db|-4-4-4-4-4-4-4-4-----|-6-6-6-6-6-6-6-6------------|  
Ab|-2-2-2-2-2-2-2-2-----|-4-4-4-4-4-4-4-4------------|
Eb|---------------------|----------------------------|

  Hindi alam kung saan   magsisimula...



Guitar 1: Lead Guitar

eb|---------------------|----------------------------|
Bb|---------------------|----------------------------|
Gb|-4-4-4-4-4-4-4-4-----|-6-6-6-6-6-6-6-6------------|
Db|-4-4-4-4-4-4-4-4-----|-6-6-6-6-6-6-6-6------------|  
Ab|-2-2-2-2-2-2-2-2-----|-4-4-4-4-4-4-4-4------------|
Eb|---------------------|----------------------------|

Guitar 2: Rhythm Guitar

eb|-2-2-2-2-2-2-2-2-----|-4-4-4-4-4-4-4-4------------|
Bb|-3-3-3-3-3-3-3-3-----|-5-5-5-5-5-5-5-5------------|
Gb|-4-4-4-4-4-4-4-4-----|-6-6-6-6-6-6-6-6------------|
Db|-4-4-4-4-4-4-4-4-----|-6-6-6-6-6-6-6-6------------|  
Ab|-2-2-2-2-2-2-2-2-----|-4-4-4-4-4-4-4-4------------|
Eb|---------------------|----------------------------|

   Ang ngayon, bukas,       kailanman nag 



Guitar 1: Lead Guitar

eb|---------------------|---------5--------------------------|
Bb|2h3-2---2h3-2--------|---------6--------------------------|
Gb|------2-------2------|---------7--------------------------|
Db|---------------------|---------7--------------------------|  
Ab|---------------------|---------5--------------------------|
Eb|---------------------|------------------------------------|

Guitar 2: Rhythm Guitar

eb|-5-5-5-5-5-5-5-5-----|---------5--------------------------|
Bb|-5-5-5-5-5-5-5-5-----|---------6--------------------------|
Gb|-7-7-7-7-7-7-7-7-----|---------7--------------------------|
Db|-7-7-7-7-7-7-7-7-----|---------7--------------------------|  
Ab|-5-5-5-5-5-5-5-5-----|---------5--------------------------|
Eb|---------------------|------------------------------------|
      
    iba...                         wala bang bukas





For comments send me a message in Friendster. 


And u Can also add me as your friend Or send me a testimonial.hehehe
God bless!

SAna nagustuhan nyo po.. medyo madali lang to yakang yaka nyo yan.



Tapos Leave a message kayo Kung gusto nyo maglagay ng comment





Comments


Popular 6 Cycle Mind tabs & chords
Biglaan 2 Bass Tabs
Wait Or Go Bass Tabs
Naghihintay Chords
Nalilito Chords
Sige 1 Chords
Alapaap Tabs
Come To My Window Ukulele
Merry Xmas To All Ukulele
Sandalan Ukulele
Tunay Ukulele


Song lyrics



↑ Back to top | Tablatures and chords are parodies/interpretations of the original songs. You may use it for private study, scholarship, research or language learning purposes only
© 2014 AZChords.com Contact us | Privacy policy | DMCA | Add/correct tabs | Request tabs | Top 50 tabs