>
 >
The Chair 3

The Chair 3 Bass Tabs

69 Eyes - The Chair 3 chords, tabs, tablatures, lyrics

Guitar lessons | Add/correct | Request | Top 50 tabs Artists:  A B C D E F G H I J K L M N O P Q R S T U V W X Y Z 0-9

The Chair 3 Bass Tabs – 69 Eyes

CD, Sheet music, Poster

Do you like The Chair 3? Share with your friends now
Bass TabsBass Tabs v2Bass Tabs v3Tabs
#------------------------------------------------------------------------------##

                              THE CHAIR (Bassline)
                           As recorded by The 69 Eyes
                        (From the 2000 Album BLESSED BE)

Words by Jyrki

Music by Bazie
Arranged by The 69 Eyes

Gtr I (Db Ab Db Gb) - 'Bass'
Gtr II (Db Ab Db Gb) - 'keyb'
Gtr III (Eb Ab Db Gb Bb Eb) - 'synth'

 Intro
  Q=128
 4/4
  Gtr I
  Wx4
|--------|
|--------|
|--------|
|--------|


    E E E E E E E E   +E  E E E E E E E
||------------------|-------------------|
||o-----------------|-------------------|
||o-----------------|-------------------|
||--7-7-7-7-7-7-7-3-|-(3)-3-3-3-3-3-3-3-|


  E E E E E E E E   +E  E E E E E E E
|-----------------|---------------------||
|-----------------|--------------------o||
|-----------------|--------------------o||
|-0-0-0-0-0-0-0-5-|-(5)-5-5-5-5-5-5-5---||


   Verse
    $
    E E E E E E E E   E E E E E E  E E   E E E E E E E E   E E E E E E E E   3x
||------------------|------------------|-----------------|-------------------||
||o-----------------|------------------|-----------------|------------------o||
||o-----------------|------------------|-----------------|------------------o||
||--7-7-7-7-7-7-7-7-|-7-7-7-7-7-9-10-9-|-5-5-5-5-5-5-5-5-|-3-3-3-3-3-3-3-3---||
|
|   Gtr II
|   H       H         W                  H       H         H       H         3x
||--2---------------|------------------|-----------------|-------------------||
||o-----------------|------------------|-5---------------|-3----------------o||
||o-----------------|------------------|-----------------|------------------o||
||------------------|------------------|-----------------|-------------------||


  E E E E E E E E   E E E E E E E E   E E E E E E E E   E E E E E E E E
|-----------------|-----------------|-----------------|-----------------||
|-----------------|-----------------|-----------------|-----------------||
|-----------------|-----------------|-----------------|-----------------||
|-7-7-7-7-7-7-7-7-|-3-3-3-3-3-3-3-3-|-5-5-5-5-5-5-5-5-|-3-3-3-3-3-3-3-3-||
|
| H       H         H       H         H       H         H       H
|-2---------------|-----------------|-----------------|-----------------||
|-----------------|-3---------------|-5---------------|-3---------------||
|-----------------|-----------------|-----------------|-----------------||
|-----------------|-----------------|-----------------|-----------------||


 Pre-Chorus
  H    E E E E   +E  E Q.   E E E   H    E E E E
|--------------|------------------|--------------|
|--------------|------------------|--------------|
|--------------|------------------|--------------|
|-2----2-2-2-3-|-(3)-3-3----3-3-3-|-2----2-2-2-0-|


  +E  E E E E E E E   E E E E E E E E
|-------------------|-----------------||
|-------------------|-----------------||
|-------------------|-----------------||
|-(0)-0-0-0-0-0-0-0-|-0-0-0-0-0-0-0-0-||


 Chorus
  E E E E E E E E   +E  E E E E E E E    E   E E E E E E E   +E  E E E E E E E
|-----------------|-------------------|--------------------|-------------------|
|-----------------|-------------------|--------------------|-------------------|
|-----------------|-------------------|--------------------|-------------------|
|-7-7-7-7-7-7-7-3-|-(3)-3-3-3-3-3-3-3-|--0---0-0-0-0-0-0-5-|-(5)-5-5-5-5-5-5-5-|
|
| Gtr III
| W                 +W                  +H..             E   +W
|-5---------------|-(5)---------------|-(5)--------------3-|-(3)---------------|
|-----------------|-------------------|--------------------|-------------------|
|-----------------|-------------------|--------------------|-------------------|
|-7---------------|-(7)---------------|-(7)--------------5-|-(5)---------------|
|-----------------|-------------------|--------------------|-------------------|
|-----------------|-------------------|--------------------|-------------------|


  E   E E E E E E  E    +E  E E E E E E E
|--------------------|--------------------|
|--------------------|--------------------|
|--------------------|--------------------|
|-7---7-7-7-7-7-7--3-|--(3)-3-3-3-3-3-3-3-|
|
| H..              E    +W
|-7----------------8-|--(8)---------------|
|--------------------|--------------------|
|--------------------|--------------------|
|-9---------------10-|-(10)---------------|
|--------------------|--------------------|
|--------------------|--------------------|


                                    D.S.
    E  E E E E E E E    +E  E E E E E E E
|--------------------|--------------------|
|--------------------|--------------------|
|--------------------|--------------------|
|---0--0-0-0-0-0-0-5-|--(5)-5-5-5-5-5-5-5-|
|
|  +W                   +W
|--(8)---------------|--(8)---------------|
|--------------------|--------------------|
|--------------------|--------------------|
|-(10)---------------|-(10)---------------|
|--------------------|--------------------|
|--------------------|--------------------|


   E E E E E E E E    +E  E E E E E E E
|------------------|--------------------|
|------------------|--------------------|
|------------------|--------------------|
|--7-7-7-7-7-7-7-3-|--(3)-3-3-3-3-3-3-3-|
|
|  W                  +W
|-12---------------|-(12)---------------|
|------------------|--------------------|
|------------------|--------------------|
|-14---------------|-(14)---------------|
|------------------|--------------------|
|------------------|--------------------|


    E  E E E E E E E    +E  E E E  E E E E
|--------------------|---------------------|
|--------------------|---------------------|
|--------------------|---------------------|
|---0--0-0-0-0-0-0-5-|--(5)-5-5-5--5-5-5-5-|
|
|  +W                   +H         H
|-(12)---------------|-(12)-------15-------|
|--------------------|---------------------|
|--------------------|---------------------|
|-(14)---------------|-(14)-------17-------|
|--------------------|---------------------|
|--------------------|---------------------|


   E E E E E E E E    +E  E E E E E E E
|------------------|--------------------|
|------------------|--------------------|
|------------------|--------------------|
|--7-7-7-7-7-7-7-3-|--(3)-3-3-3-3-3-3-3-|
|
|  W                  +W
|-17---------------|-(17)---------------|
|------------------|--------------------|
|------------------|--------------------|
|-19---------------|-(19)---------------|
|------------------|--------------------|
|------------------|--------------------|


    E  E E E E E E E    +E  E E E E E E E
|--------------------|--------------------||
|--------------------|--------------------||
|--------------------|--------------------||
|---0--0-0-0-0-0-0-5-|--(5)-5-5-5-5-5-5-5-||
|
|  +W                   +W
|-(17)---------------|-(17)---------------||
|--------------------|--------------------||
|--------------------|--------------------||
|-(19)---------------|-(19)---------------||
|--------------------|--------------------||
|--------------------|--------------------||


 Guitar Solo
  E E E E E E E E   +E  E E E E E E E   E E E E E E +E  E   +E  E E E E E E E
|-----------------|-------------------|-------------------|-------------------|
|-----------------|-------------------|-------------------|-------------------|
|-----------------|-------------------|-------------------|-------------------|
|-3-3-3-3-3-3-3-5-|-(5)-5-5-5-5-5-5-5-|-2-2-2-2-2-0-(0)-2-|-(2)-2-2-2-2-2-2-2-|


  E E E E E E E E   +E  E E E E E E E   E E E E E E E E
|-----------------|-------------------|-----------------|
|-----------------|-------------------|-----------------|
|-----------------|-------------------|-----------------|
|-3-3-3-3-3-3-3-5-|-(5)-5-5-5-5-5-5-5-|-2-2-2-2-2-2-2-0-|
|
| Gtr III
| W                  W                  W
|-----------------|-------------------|-----------------|
|-----------------|-------------------|-----------------|
|-----------------|-------------------|-----------------|
|-----------------|-------------------|-----------------|
|-----------------|-------------------|-----------------|
|-----------------|-------------------|-----------------|


  +E  E E E E E E E   E   E E E E E E E
|-------------------|--------------------||
|-------------------|--------------------||
|-------------------|--------------------||
|-(0)-0-0-0-0-0-0-0-|-0---0-0-0-0-0-0-0/-||
|
|  W                  H..             E
|-------------------|-----------------5--||
|-------------------|--------------------||
|-------------------|--------------------||
|-------------------|--------------------||
|-------------------|--------------------||
|-------------------|--------------------||


 Interlude
    W            Q.    H     +E     H.       +Q       Q.    E  +H
|-------------|------------------|-----------------|------------------|
|-------------|-15----14----(14)-|-12-------(12)\--|------------------|
|-/12---------|------------------|-----------------|--8----10-(10)----|
|-------------|------------------|-----------------|------------------|
|
|  +W           +W                 +W                +W
|--(5)--------|-(5)--------------|-(5)-------------|-(5)--------------|
|-------------|------------------|-----------------|------------------|
|-------------|------------------|-----------------|------------------|
|-------------|------------------|-----------------|------------------|
|-------------|------------------|-----------------|------------------|
|-------------|------------------|-----------------|------------------|


                        ~~~
    H      +E   Q.      H      +Q    +Q
|--------------------|---------------------|
|--------------14----|-15-----(15)--(15)\--|
|-/12-----(12)-------|---------------------|
|--------------------|---------------------|
|
|  +W                  +W
|--(5)---------------|-(5)-----------------|
|--------------------|---------------------|
|--------------------|---------------------|
|--------------------|---------------------|
|--------------------|---------------------|
|--------------------|---------------------|


   ~~~
   Q    +H      +Q       Q.   E +H
|---------------------|----------------|
|-12---(12)----(12)\--|----------------|
|---------------------|----------------|
|---------------------|--3----5-(5)----|
|
| +W                    +H       H
|-(5)-----------------|-(5)------3-----|
|---------------------|----------------|
|---------------------|----------------|
|---------------------|----------------|
|---------------------|----------------|
|---------------------|----------------|


  E E E E E E E E   +E  E E E E E E E
|-----------------|-------------------|
|-----------------|-------------------|
|-----------------|-------------------|
|-7-7-7-7-7-7-7-3-|-(3)-3-3-3-3-3-3-3-|
|
| W                 +W
|-0---------------|-(0)---------------|
|-----------------|-------------------|
|-----------------|-------------------|
|-----------------|-------------------|
|-----------------|-------------------|
|-----------------|-------------------|


  E   E E E E E E E   +E  E E E  E  E E E
|-------------------|---------------------|
|-------------------|---------------------|
|-------------------|---------------------|
|-0---0-0-0-0-0-0-5-|-(5)-5-5-5--5--5-5-5-|
|
| H..             E   +Q.     E +H
|-------------------|---------------------|
|-3---------------1-|-(1)-----0-(0)-------|
|-------------------|---------------------|
|-------------------|---------------------|
|-------------------|---------------------|
|-------------------|---------------------|


  E E E E E E E E   +E  E E E E E E E
|-----------------|-------------------|
|-----------------|-------------------|
|-----------------|-------------------|
|-7-7-7-7-7-7-7-3-|-(3)-3-3-3-3-3-3-3-|
|
| W                 +W
|-----------------|-------------------|
|-----------------|-------------------|
|-2---------------|-(2)---------------|
|-----------------|-------------------|
|-----------------|-------------------|
|-----------------|-------------------|


   E   E E E E E E E   +E  E E E  E  E E E
|--------------------|---------------------||
|--------------------|---------------------||
|--------------------|---------------------||
|--0---0-0-0-0-0-0-5-|-(5)-5-5-5--5--5-5-5-||
|
| +H..             E   +Q.     E +H
|--------------------|---------------------||
|------------------1-|-(1)-----0-(0)-------||
|-(2)----------------|---------------------||
|--------------------|---------------------||
|--------------------|---------------------||
|--------------------|---------------------||


 Out-Chorus
  E E E E E E E E   +E  E E E E E  E  E
|-----------------|---------------------|
|-----------------|---------------------|
|-----------------|---------------------|
|-7-7-7-7-7-7-7-3-|-(3)-3-3-3-3-3--3--3-|
|
| W                 +H.            Q
|-5---------------|-(5)------------7----|
|-----------------|---------------------|
|-----------------|---------------------|
|-7---------------|-(7)-----------(7)---|
|-----------------|---------------------|
|-----------------|---------------------|


  E   E E E E E E E   +E  E E E E E E E
|-------------------|-------------------|
|-------------------|-------------------|
|-------------------|-------------------|
|-0---0-0-0-0-0-0-5-|-(5)-5-5-5-5-5-5-5-|
|
| H..             E   +W
|-3---------------5-|-(5)---------------|
|-------------------|-------------------|
|-------------------|-------------------|
|-5---------------7-|-(7)---------------|
|-------------------|-------------------|
|-------------------|-------------------|


  E E E E E E E E   +E  E E E E E  E  E
|-----------------|---------------------|
|-----------------|---------------------|
|-----------------|---------------------|
|-7-7-7-7-7-7-7-3-|-(3)-3-3-3-3-3--3--3-|
|
| W                 +H.            Q
|-5---------------|-(5)------------7----|
|-----------------|---------------------|
|-----------------|---------------------|
|-7---------------|-(7)-----------(7)---|
|-----------------|---------------------|
|-----------------|---------------------|


   E   E E E E E E  E    +E  E E E E E E E
|---------------------|--------------------|
|---------------------|--------------------|
|---------------------|--------------------|
|--0---0-0-0-0-0-0--5-|--(5)-5-5-5-5-5-5-5-|
|
|  H..              E    +W
|-15---------------17-|-(17)---------------|
|---------------------|--------------------|
|---------------------|--------------------|
|-17---------------19-|-(19)---------------|
|---------------------|--------------------|
|---------------------|--------------------|


   E E E E E E E E    +E  E E E E E E E
|------------------|--------------------|
|------------------|--------------------|
|------------------|--------------------|
|--7-7-7-7-7-7-7-3-|--(3)-3-3-3-3-3-3-3-|
|
|  W                  +W
|-12---------------|-(12)---------------|
|------------------|--------------------|
|------------------|--------------------|
|-14---------------|-(14)---------------|
|------------------|--------------------|
|------------------|--------------------|


   E E E E E E E E    +E  E E  E   E  E E E
|------------------|------------------------|
|------------------|------------------------|
|------------------|------------------------|
|--0-0-0-0-0-0-0-5-|--(5)-5-5--5---5--5-5-5-|
|
|  W                  +Q.      E  +H
|-10---------------|-(10)-------------------|
|------------------|----------12-(12)-------|
|------------------|------------------------|
|-12---------------|-(12)-------------------|
|------------------|------------------------|
|------------------|------------------------|


  E E E E E E E E   +E  E E E E E E E   E E E E E E E E   +E  E E E E E E E
|-----------------|-------------------|-----------------|-------------------|
|-----------------|-------------------|-----------------|-------------------|
|-----------------|-------------------|-----------------|-------------------|
|-7-7-7-7-7-7-7-3-|-(3)-3-3-3-3-3-3-3-|-0-0-0-0-0-0-0-5-|-(5)-5-5-5-5-5-5-5-|
|
| W                 +W                  W                 +W
|-5---------------|-(5)---------------|-3---------------|-(3)---------------|
|-----------------|-------------------|-----------------|-------------------|
|-----------------|-------------------|-----------------|-------------------|
|-7---------------|-(7)---------------|-5---------------|-(5)---------------|
|-----------------|-------------------|-----------------|-------------------|
|-----------------|-------------------|-----------------|-------------------|


    E E E E E E E E   +E  E E E E E  E  E
||------------------|---------------------|
||o-----------------|---------------------|
||o-----------------|---------------------|
||--7-7-7-7-7-7-7-3-|-(3)-3-3-3-3-3--3--3-|
|
|   W                 +H.            Q
||--5---------------|-(5)------------7----|
||o-----------------|---------------------|
||------------------|---------------------|
||--7---------------|-(7)-----------(7)---|
||o-----------------|---------------------|
||------------------|---------------------|


   E   E E E E E E  E    +E  E E E E E E E
|---------------------|----------------------||
|---------------------|---------------------o||
|---------------------|---------------------o||
|--0---0-0-0-0-0-0--5-|--(5)-5-5-5-5-5-5-5---||
|
|  H..              E    +W
|-15---------------17-|-(17)-----------------||
|---------------------|---------------------o||
|---------------------|----------------------||
|-17---------------19-|-(19)-----------------||
|---------------------|---------------------o||
|---------------------|----------------------||


  Q=86    H.=H
           >
    H     +H        +W            +W
|----------------|-------------|---------*|
|----------------|-------------|---------*|
|----------------|-------------|---------*|
|---7-----(7)----|--(7)--------|--(7)----*|
|
|                    >
|  +W               +W            +W
|-(17)-----------|-(17)--------|-(17)----*|
|----------------|-------------|---------*|
|----------------|-------------|---------*|
|-(19)-----------|-(19)--------|-(19)----*|
|----------------|-------------|---------*|
|----------------|-------------|---------*|


Duration Legend
---------------
W - whole; H - half; Q - quarter; E - 8th; S - 16th; T - 32nd; X - 64th; a - acciaccatura
+ - note tied to previous; . - note dotted; .. - note double dotted
Uncapitalized letters represent notes that are staccato (1/2 duration)
Irregular groupings are notated above the duration line
Duration letters will always appear directly above the note/fret number it represents the
duration for.  Duration letters with no fret number below them represent rests.  Multi-
bar rests are notated in the form Wxn, where n is the number of bars to rest for.  Low
melody durations appear below the staff

Tablature Legend
----------------
 h   - hammer-on
 p   - pull-off
 b   - bend
 pb  - pre-bend
 r   - bend release (if no number after the r, then release immediately)
 /\  - slide into or out of (from/to "nowhere")
 s   - legato slide
 S   - shift slide
  - natural harmonic
[n]  - artificial harmonic
n(n) - tapped harmonic
 ~   - vibrato
 tr  - trill
 T   - tap
 TP  - trem. picking
 PM  - palm muting
\n/  - tremolo bar dip; n = amount to dip
 \n  - tremolo bar down
 n/  - tremolo bar up
/n\  - tremolo bar inverted dip
 =   - hold bend; also acts as connecting device for hammers/pulls
 <>  - volume swell (louder/softer)
 x   - on rhythm slash represents muted slash
 o   - on rhythm slash represents single note slash

Misc Legend
-----------
 |  - bar
||  - double bar
||o - repeat start
o|| - repeat end
*|  - double bar (ending)
 :  - bar (freetime)
 $  - Segno
 &  - Coda





Comments


Popular 69 Eyes tabs & chords
D.I.D Bass Tabs
Devils Bass Tabs
Framed In Blood 1 Bass Tabs
Sleeping With Lions Bass Tabs
Still Waters Run Deep 2 Bass Tabs
Wasting The Dawn Chords
Beneath The Blue Tabs
Brandon Lee Tabs
From Dusk Till Dawn 2 Tabs
Velvet Touch 1 Tabs


Song lyrics



↑ Back to top | Tablatures and chords are parodies/interpretations of the original songs. You may use it for private study, scholarship, research or language learning purposes only
© 2014 AZChords.com Contact us | Privacy policy | DMCA | Add/correct tabs | Request tabs | Top 50 tabs