>
 >
Stolen Season

Stolen Season Guitar Tabs

69 Eyes - Stolen Season chords, tabs, tablatures, lyrics

Guitar lessons | Add/correct | Request | Top 50 tabs Artists:  A B C D E F G H I J K L M N O P Q R S T U V W X Y Z 0-9

Stolen Season Guitar Tabs – 69 Eyes

CD, Sheet music, Poster

Do you like Stolen Season? Share with your friends now
Bass TabsBass Tabs v2Tabs
#------------------------------------------------------------------------------##

                                  STOLEN SEASON
                           As recorded by The 69 Eyes
                        (From the 2001 Album BLESSED BE)

Words and Music by The 69 Eyes

Gtr I (Eb Ab Db Gb Bb Eb) - 'Keyboard'
Gtr II (Eb Ab Db Gb Bb Eb) - 'acoustic'
Gtr III (Eb Ab Db Gb Bb Eb) - 'acoustic'
Gtr IV (Eb Ab Db Gb Bb Eb) - 'Untitled'
Gtr V (Eb Ab Db Gb Bb Eb) - 'Untitled'

 Intro
  Q=110
 4/4
  Gtr I
  Wx4
|--------|
|--------|
|--------|
|--------|
|--------|
|--------|


  E5                  G5
  E E E E +Q    Q      E  E  E  E +Q      E  E
|-------------------|--------------------------|
|-------------------|--------------------------|
|-----9-7-(7)---9---|--------9--7-(7)-----9----|
|---7---------------|-----7------------------7-|
|-7-----------------|--7-----------------------|
|-------------------|--------------------------|
|
| Gtr II
| PM--------------------------------------------
| E E E E  E  E E E    E  E  E  E  E   E  E  E
|-------------------|--------------------------|
|-------------------|--------------------------|
|-------------------|--------------------------|
|-9-9-9-9--9--9-9-9S|=12-12-12-12-12--12-12-12S|
|-7-7-7-7--7--7-7-7S|=10-10-10-10-10--10-10-10S|
|-------------------|--------------------------|


  C5
  +W                  +W
|-------------------|--------------------|
|-------------------|--------------------|
|-------------------|--------------------|
|-(7)---------------|-(7)----------------|
|-------------------|--------------------|
|-------------------|--------------------|
|
|-------------------------------------|
|  E  E E E E E E E    E  E E E E E E E
|-------------------|--------------------|
|-------------------|--------------------|
|-------------------|--------------------|
|--5--5-5-5-5-5-5-5-|--5--5-5-5-5-5-5-5--|
|--3--3-3-3-3-3-3-3-|--3--3-3-3-3-3-3-3/-|
|-------------------|--------------------|


  A                     A5
  E E  E  E  +Q    Q     E  E  E  E  +Q    E  E    +W            +W
|---------------------|-------------------------|-------------|---------|
|---------------------|-------------------------|-------------|---------|
|------9--7--(7)---9--|--------9--7--(7)---9----|-------------|---------|
|---7-----------------|-----7-----------------7-|--(7)--------|--(7)----|
|-7-------------------|--7----------------------|-------------|---------|
|---------------------|-------------------------|-------------|---------|
|
| E E  E  E  +Q    Q     E  E  E  E  +Q    E  E    +W            +W
|-----12-10-(10)--12--|-------12-10-(10)--12----|-------------|---------|
|---------------------|----------------------10-|-(10)--------|-(10)----|
|---9-----------------|-----9-------------------|-------------|---------|
|-7-------------------|--7----------------------|-------------|---------|
|---------------------|-------------------------|-------------|---------|
|---------------------|-------------------------|-------------|---------|
|
| Gtr III
|                                                                 >
| W                      W                         +W            +W
|---------------------|-------------------------|-------------|---------|
|---------------------|-------------------------|-------------|---------|
|---------------------|--9----------------------|--(9)--------|--(9)----|
|-7-------------------|-(7)---------------------|--(7)--------|--(7)----|
|-0-------------------|-(0)---------------------|--(0)--------|--(0)----|
|---------------------|-------------------------|-------------|---------|


  A5
  E E  E   E  +Q    Q    E E  E   E  +Q    E  E    +W               +W
|----------------------|------------------------|----------------|---------|
|----------------------|------------------------|----------------|---------|
|------9---7--(7)---9--|------9---7--(7)---9----|----------------|---------|
|---7------------------|---7------------------7-|--(7)-----------|--(7)----|
|-7--------------------|-7----------------------|----------------|---------|
|----------------------|------------------------|----------------|---------|
|
| E E  E   E  +Q    Q    E E  E   E  +Q    E  E    +W               +W
|-----12--10-(10)--12--|-----12--10-(10)--12----|----------------|---------|
|----------------------|---------------------10-|-(10)-----------|-(10)----|
|---9------------------|---9--------------------|----------------|---------|
|-7--------------------|-7----------------------|----------------|---------|
|----------------------|------------------------|----------------|---------|
|----------------------|------------------------|----------------|---------|
|
| 
| Q   +H.                Q   +H.                    Q   +H.         +W
|----------------------|------------------------|----------------|---------|
|----------------------|------------------------|----------------|---------|
|-9---(9)--------------|-9---(9)----------------|---9---(9)------|--(9)----|
|-7---(7)--------------|-7---(7)----------------|---7---(7)------|--(7)----|
|-0---(0)--------------|-0---(0)----------------|---0---(0)------|--(0)----|
|----------------------|------------------------|----------------|---------|


   Verse
    E5                G5
    Gtr I
    PM-----------------------------------------
    E E E E E E E E    E  E  E  E  E  E  E  E
||------------------|-------------------------|
||o-----------------|-------------------------|
||------------------|-------------------------|
||--9-9-9-9-9-9-9-9S|=12-12-12-12-12-12-12-12S|
||o-7-7-7-7-7-7-7-7S|=10-10-10-10-10-10-10-10S|
||------------------|-------------------------|


  C5
 ---------------------------------|
  E E E E E E E E   E E E E E E E E
|-----------------|--------------------||
|-----------------|-------------------o||
|-----------------|--------------------||
|-5-5-5-5-5-5-5-5-|-5-5-5-5-5-5-5-5----||
|-3-3-3-3-3-3-3-3-|-3-3-3-3-3-3-3-3/--o||
|-----------------|--------------------||


  E5                G5
  PM-----------------------------------------
  E E E E E E E E    E  E  E  E  E  E  E  E
|-----------------|-------------------------|
|-----------------|-------------------------|
|-----------------|-------------------------|
|-9-9-9-9-9-9-9-9S|=12-12-12-12-12-12-12-12S|
|-7-7-7-7-7-7-7-7S|=10-10-10-10-10-10-10-10S|
|-----------------|-------------------------|


  C5
 ---------------------------------|
  E E E E E E E E   E E E E E E E E
|-----------------|------------------|
|-----------------|------------------|
|-----------------|------------------|
|-5-5-5-5-5-5-5-5-|-5-5-5-5-5-5-5-5--|
|-3-3-3-3-3-3-3-3-|-3-3-3-3-3-3-3-3/-|
|-----------------|------------------|


  E5                G5                        C5
  PM------------------------------------------|
  E E E E E E E E    E  E  E  E  E  E  E  E   W          +W
|-----------------|-------------------------|----------|--------|
|-----------------|-------------------------|----------|--------|
|-----------------|-------------------------|----------|--------|
|-9-9-9-9-9-9-9-9S|=12-12-12-12-12-12-12-12S|=5--------|-(5)----|
|-7-7-7-7-7-7-7-7S|=10-10-10-10-10-10-10-10S|=3--------|-(3)----|
|-----------------|-------------------------|----------|--------|


 Chorus
  B5
  Gtr III
  W          +W           W          +W
|----------|------------|----------|--------|
|----------|------------|----------|--------|
|-4--------|-(4)--------|-4--------|-(4)----|
|-4--------|-(4)--------|-4--------|-(4)----|
|-2--------|-(2)--------|-2--------|-(2)----|
|----------|------------|----------|--------|


  B5         E5         G5         A5
  W          W          W          W
|----------|----------|----------|------|
|----------|----------|----------|------|
|-4--------|----------|----------|------|
|-4--------|-2--------|-5--------|-7----|
|-2--------|-2--------|-5--------|-7----|
|----------|-0--------|-3--------|-5----|


 Pre-Verse
  N.C.
  Gtr III
  Q     E  E  +Q    E  E    +W           Q     E  E  +Q    E  E    +W
|------------------------|-------------|------------------------|---------|
|------------------------|-------------|------------------------|---------|
|------------------------|-------------|------------------------|---------|
|------------------------|-------------|------------------------|---------|
|-------9--7--(7)---9----|-------------|-------9--7--(7)---9----|---------|
|-7--------------------7-|--(7)--------|-7--------------------7-|--(7)----|
|
| Gtr II
| E  E  E  E  +Q    E  E    +W           E  E  E  E  +Q    E  E    +W
|------14-12-(12)--14----|-------------|------14-12-(12)--14----|---------|
|---------------------12-|-(12)--------|---------------------12-|-(12)----|
|---11-------------------|-------------|---11-------------------|---------|
|-9----------------------|-------------|-9----------------------|---------|
|------------------------|-------------|------------------------|---------|
|------------------------|-------------|------------------------|---------|


  A5         C5          F5
  W           W          W          +W
|----------|-----------|----------|--------|
|----------|-----------|----------|--------|
|----------|-----------|----------|--------|
|-7--------|-10--------|-3--------|-(3)----|
|-7--------|-10--------|-3--------|-(3)----|
|-5--------|--8--------|-1--------|-(1)----|


   Verse
    E5                G5
    Gtr I
    PM-----------------------------------------
    E E E E E E E E    E  E  E  E  E  E  E  E
||------------------|-------------------------|
||o-----------------|-------------------------|
||------------------|-------------------------|
||--9-9-9-9-9-9-9-9S|=12-12-12-12-12-12-12-12S|
||o-7-7-7-7-7-7-7-7S|=10-10-10-10-10-10-10-10S|
||------------------|-------------------------|


  C5
 ---------------------------------|
  E E E E E E E E   E E E E E E E E
|-----------------|--------------------||
|-----------------|-------------------o||
|-----------------|--------------------||
|-5-5-5-5-5-5-5-5-|-5-5-5-5-5-5-5-5/---||
|-3-3-3-3-3-3-3-3-|-3-3-3-3-3-3-3-3/--o||
|-----------------|--------------------||


  E5                G5
  PM-----------------------------------------
  E E E E E E E E    E  E  E  E  E  E  E  E
|-----------------|-------------------------|
|-----------------|-------------------------|
|-----------------|-------------------------|
|-9-9-9-9-9-9-9-9S|=12-12-12-12-12-12-12-12S|
|-7-7-7-7-7-7-7-7S|=10-10-10-10-10-10-10-10S|
|-----------------|-------------------------|


  C5
 ---------------------------------|
  E E E E E E E E   E E E E E E E E
|-----------------|------------------|
|-----------------|------------------|
|-----------------|------------------|
|-5-5-5-5-5-5-5-5-|-5-5-5-5-5-5-5-5--|
|-3-3-3-3-3-3-3-3-|-3-3-3-3-3-3-3-3/-|
|-----------------|------------------|


  E5                G5                        C5
  PM------------------------------------------|
  E E E E E E E E    E  E  E  E  E  E  E  E   W          +W
|-----------------|-------------------------|----------|--------|
|-----------------|-------------------------|----------|--------|
|-----------------|-------------------------|----------|--------|
|-9-9-9-9-9-9-9-9S|=12-12-12-12-12-12-12-12S|=5--------|-(5)----|
|-7-7-7-7-7-7-7-7S|=10-10-10-10-10-10-10-10S|=3--------|-(3)----|
|-----------------|-------------------------|----------|--------|


 Chorus
  B5
  Gtr III
  W                       +W           W                       +W
|----------------------|-------------|----------------------|---------|
|----------------------|-------------|----------------------|---------|
|-4--------------------|--(4)--------|-4--------------------|--(4)----|
|-4--------------------|--(4)--------|-4--------------------|--(4)----|
|-2--------------------|--(2)--------|-2--------------------|--(2)----|
|----------------------|-------------|----------------------|---------|
|
| Gtr II
| Q   E  E  +Q    E  E    +W           Q   E  E  +Q    E  E    +W
|----14-12-(12)--14----|-------------|----14-12-(12)--14----|---------|
|-------------------12-|-(12)--------|-------------------12-|-(12)----|
|----------------------|-------------|----------------------|---------|
|-9--------------------|-------------|-9--------------------|---------|
|----------------------|-------------|----------------------|---------|
|----------------------|-------------|----------------------|---------|


    B5                     E5            G5                     A5
    W                        W           W                        W
||-----------------------|-------------|----------------------|----------||
||o----------------------|-------------|----------------------|---------o||
||--4--------------------|-------------|----------------------|----------||
||--4--------------------|---2---------|-5--------------------|---7------||
||o-2--------------------|---2---------|-5--------------------|---7-----o||
||-----------------------|---0---------|-3--------------------|---5------||
|
|   Q   E  E  +Q    E  E    +W           Q   E  E  +Q    E  E    +W
||-----14-12-(12)--14----|-------------|----14-12-(12)--14----|----------||
||o-------------------12-|-(12)--------|-------------------12-|-(12)----o||
||-----------------------|-------------|----------------------|----------||
||--9--------------------|-------------|-9--------------------|----------||
||o----------------------|-------------|----------------------|---------o||
||-----------------------|-------------|----------------------|----------||


    N.C.
    Q   E  E  +Q    E  E    +W           Q   E  E  +Q    E  E    +W
||-----------------------|-------------|----------------------|----------||
||o----------------------|-------------|----------------------|---------o||
||-----------------------|-------------|----------------------|----------||
||-----------------------|-------------|----------------------|----------||
||o-----9--7--(7)---9----|-------------|-----9--7--(7)---9----|---------o||
||--7------------------7-|--(7)--------|-7------------------7-|--(7)-----||
|
|   Q   E  E  +Q    E  E    +W           Q   E  E  +Q    E  E    +W
||-----14-12-(12)--14----|-------------|----14-12-(12)--14----|----------||
||o-------------------12-|-(12)--------|-------------------12-|-(12)----o||
||-----------------------|-------------|----------------------|----------||
||--9--------------------|-------------|-9--------------------|----------||
||o----------------------|-------------|----------------------|---------o||
||-----------------------|-------------|----------------------|----------||


 Bridge
  C#5                     F#5
  W          +W           W          +W
|----------|------------|----------|--------|
|----------|------------|----------|--------|
|-6--------|-(6)--------|----------|--------|
|-6--------|-(6)--------|-4--------|-(4)----|
|-4--------|-(4)--------|-4--------|-(4)----|
|----------|------------|-2--------|-(2)----|


  C#5        F#5        A5         B5
  W          W          W          W
|----------|----------|----------|------|
|----------|----------|----------|------|
|-6--------|----------|----------|------|
|-6--------|-4--------|-7--------|-9----|
|-4--------|-4--------|-7--------|-9----|
|----------|-2--------|-5--------|-7----|


  C#5                              F#5
  W                   +W           W                   +W
|-------------------|------------|-------------------|--------|
|-------------------|------------|-------------------|--------|
|-6-----------------|-(6)--------|-------------------|--------|
|-6-----------------|-(6)--------|-4-----------------|-(4)----|
|-4-----------------|-(4)--------|-4-----------------|-(4)----|
|-------------------|------------|-2-----------------|-(2)----|
|
| Gtr IV
| Q   E E +Q    E E   +W           Q   E E +Q    E E   +W
|-------------------|------------|-------------------|--------|
|-------------------|------------|-------------------|--------|
|-------------------|------------|-------------------|--------|
|-------------------|------------|-------------------|--------|
|----11-9-(9)--11---|------------|----11-9-(9)--11---|--------|
|-9---------------9-|-(9)--------|-9---------------9-|-(9)----|


  C#5                 F#5          A5                  B5
  W                    W           W                    W
|-------------------|------------|-------------------|--------|
|-------------------|------------|-------------------|--------|
|-6-----------------|------------|-------------------|--------|
|-6-----------------|--4---------|-7-----------------|--9-----|
|-4-----------------|--4---------|-7-----------------|--9-----|
|-------------------|--2---------|-5-----------------|--7-----|
|
| Q   E E +Q    E E   +W           Q   E E +Q    E E   +W
|-------------------|------------|-------------------|--------|
|-------------------|------------|-------------------|--------|
|-------------------|------------|-------------------|--------|
|-------------------|------------|-------------------|--------|
|----11-9-(9)--11---|------------|----11-9-(9)--11---|--------|
|-9---------------9-|-(9)--------|-9---------------9-|-(9)----|


    N.C.                        C#5
     H     H       H     H       W                         +W
||--------------|-------------|-------------------------|----------||
||o-------------|-------------|-------------------------|---------o||
||--------------|-------------|-------------------------|----------||
||--11----13----|-14----16----|-11----------------------|-(11)-----||
||o-------------|-------------|-11----------------------|-(11)----o||
||---9----11----|-12----14----|--9----------------------|--(9)-----||
|
|   Gtr V
|    W             W             E  E  E  E  +Q    E  E    +W
||--------------|-------------|-------16-14-(14)--16----|----------||
||o-------------|-------------|----------------------14-|-(14)----o||
||--------------|-------------|----13-------------------|----------||
||--------------|-------------|-11----------------------|----------||
||o-------------|-------------|-------------------------|---------o||
||--------------|-------------|-------------------------|----------||


   Out-Chorus
    C#5                                     F#5
     Q     E  E  +Q    E  E    +W            Q     E  E  +Q    E  E    +W
||--------------------------|-------------|-------------------------|---------|
||o-------------------------|-------------|-------------------------|---------|
||--------------------------|-------------|-------------------------|---------|
||--------------------------|-------------|-------------------------|---------|
||o-------11--9--(9)--11----|-------------|-------11--9--(9)--11----|---------|
||---9--------------------9-|--(9)--------|--9--------------------9-|--(9)----|
|
|    E  E  E  E  +Q    E  E    +W            E  E  E  E  +Q    E  E    +W
||--------16-14-(14)--16----|-------------|-------16-14-(14)--16----|---------|
||o----------------------14-|-(14)--------|----------------------14-|-(14)----|
||-----13-------------------|-------------|----13-------------------|---------|
||--11----------------------|-------------|-11----------------------|---------|
||o-------------------------|-------------|-------------------------|---------|
||--------------------------|-------------|-------------------------|---------|
|
|   Gtr IV
|    W                         +W            W                         +W
||--------------------------|-------------|-------------------------|---------|
||o-------------------------|-------------|-------------------------|---------|
||---6----------------------|--(6)--------|-------------------------|---------|
||---6----------------------|--(6)--------|--4----------------------|--(4)----|
||o--4----------------------|--(4)--------|--4----------------------|--(4)----|
||--------------------------|-------------|--2----------------------|--(2)----|


                                          1.
  C#5                       F#5           A5                        B5
   Q     E  E  +Q    E  E    +W            Q     E  E  +Q    E  E    +W
|-------------------------|-------------|-------------------------|----------||
|-------------------------|-------------|-------------------------|---------o||
|-------------------------|-------------|-------------------------|----------||
|-------------------------|-------------|-------------------------|----------||
|-------11--9--(9)--11----|-------------|-------11--9--(9)--11----|---------o||
|--9--------------------9-|--(9)--------|--9--------------------9-|--(9)-----||
|
|  E  E  E  E  +Q    E  E    +W            E  E  E  E  +Q    E  E    +W
|-------16-14-(14)--16----|-------------|-------16-14-(14)--16----|----------||
|----------------------14-|-(14)--------|----------------------14-|-(14)----o||
|----13-------------------|-------------|----13-------------------|----------||
|-11----------------------|-------------|-11----------------------|----------||
|-------------------------|-------------|-------------------------|---------o||
|-------------------------|-------------|-------------------------|----------||
|
| Gtr IV
|  W                          W            W                          W
|-------------------------|-------------|-------------------------|----------||
|-------------------------|-------------|-------------------------|---------o||
|--6----------------------|-------------|-------------------------|----------||
|--6----------------------|---4---------|--7----------------------|---9------||
|--4----------------------|---4---------|--7----------------------|---9-----o||
|-------------------------|---2---------|--5----------------------|---7------||


 Outro
  2.
  A5
   W                         +W
|-------------------------|-------------|
|-------------------------|-------------|
|-------------------------|-------------|
|--7----------------------|--(7)--------|
|--7----------------------|--(7)--------|
|--5----------------------|--(5)--------|
|
|  E  E  E  E  +Q    E  E    +W
|-------16-14-(14)--16----|-------------|
|----------------------14-|-(14)--------|
|----13-------------------|-------------|
|-11----------------------|-------------|
|-------------------------|-------------|
|-------------------------|-------------|


   W                                                W
|-----------------------------------------------|---------|
|-----------------------------------------------|---------|
|-----------------------------------------------|---------|
|-----------------------------------------------|---------|
|-----------------------------------------------|---------|
|-----------------------------------------------|---------|
|
|  E   E   S   S   S   S   +Q    S   S   S   S     +W
|---------16-(16)-14-(14)-(14)--16-(16)---------|---------|
|---------------------------------------14-(14)-|-(14)----|
|-----------------------------------------------|---------|
|-11-(11)---------------------------------------|---------|
|-----------------------------------------------|---------|
|-----------------------------------------------|---------|


  N.C.
  Gtr V
   E   E   S   S   S   S   +Q    S   S   S   S
|---------16-(16)-14-(14)-(14)--16-(16)---------|
|---------------------------------------14-(14)-|
|-----------------------------------------------|
|-11-(11)---------------------------------------|
|-----------------------------------------------|
|-----------------------------------------------|


   +W           W          W
|-------------|----------|------*|
|-(14)--------|----------|------*|
|-------------|----------|------*|
|-------------|----------|------*|
|-------------|----------|------*|
|-------------|----------|------*|


Duration Legend
---------------
W - whole; H - half; Q - quarter; E - 8th; S - 16th; T - 32nd; X - 64th; a - acciaccatura
+ - note tied to previous; . - note dotted; .. - note double dotted
Uncapitalized letters represent notes that are staccato (1/2 duration)
Irregular groupings are notated above the duration line
Duration letters will always appear directly above the note/fret number it represents the
duration for.  Duration letters with no fret number below them represent rests.  Multi-
bar rests are notated in the form Wxn, where n is the number of bars to rest for.  Low
melody durations appear below the staff

Tablature Legend
----------------
 h   - hammer-on
 p   - pull-off
 b   - bend
 pb  - pre-bend
 r   - bend release (if no number after the r, then release immediately)
 /\  - slide into or out of (from/to "nowhere")
 s   - legato slide
 S   - shift slide
  - natural harmonic
[n]  - artificial harmonic
n(n) - tapped harmonic
 ~   - vibrato
 tr  - trill
 T   - tap
 TP  - trem. picking
 PM  - palm muting
\n/  - tremolo bar dip; n = amount to dip
 \n  - tremolo bar down
 n/  - tremolo bar up
/n\  - tremolo bar inverted dip
 =   - hold bend; also acts as connecting device for hammers/pulls
 <>  - volume swell (louder/softer)
 x   - on rhythm slash represents muted slash
 o   - on rhythm slash represents single note slash

Misc Legend
-----------
 |  - bar
||  - double bar
||o - repeat start
o|| - repeat end
*|  - double bar (ending)
 :  - bar (freetime)
 $  - Segno
 &  - Coda
Tempo markers -  = BPM(8/16=s8/s16), where s8 = swing 8ths, s16 = swing 16ths





Comments


Popular 69 Eyes tabs & chords
Beneath The Blue Bass Tabs
D.I.D Bass Tabs
Sleeping With Lions Bass Tabs
Feel Berlin Chords
Back In Blood Intro Tabs
Brandon Lee Intro Tabs
Dead Girls Are Easy Tabs
Ghost Tabs
Gothic Girl 1 Tabs
Nothing On You Tabs


Song lyrics



↑ Back to top | Tablatures and chords are parodies/interpretations of the original songs. You may use it for private study, scholarship, research or language learning purposes only
© 2014 AZChords.com Contact us | Privacy policy | DMCA | Add/correct tabs | Request tabs | Top 50 tabs