>
 >
Stolen Season

Stolen Season Bass Tabs

69 Eyes - Stolen Season chords, tabs, tablatures, lyrics

Guitar lessons | Add/correct | Request | Top 50 tabs Artists:  A B C D E F G H I J K L M N O P Q R S T U V W X Y Z 0-9

Stolen Season Bass Tabs – 69 Eyes

CD, Sheet music, Poster

Do you like Stolen Season? Share with your friends now
Bass TabsBass Tabs v2Tabs
#------------------------------------------------------------------------------##

                            STOLEN SEASON (Bassline)
                           As recorded by The 69 Eyes
                        (From the 2001 Album BLESSED BE)

Words and Music by The 69 Eyes

Gtr I (Eb Ab Db Gb) - 'Untitled'
Gtr II (Eb Ab Db Gb Bb Eb) - 'Untitled'

 Intro
  Q=110
 4/4
  Gtr I
  E E  E  E E E E E    E  E E E E E E E    E  E E E E E E E   E E E E E E E E
|-------------------|-------------------|-------------------|-----------------|
|-------------------|-------------------|-------------------|-----------------|
|-------------------|-------------------|-------------------|-----------------|
|-5-5--5--5-5-5-5-5-|--8--8-8-8-8-8-8-8-|--1--1-1-1-1-1-1-1-|-1-1-1-1-1-1-1-1-|
|
| Gtr II
| <
| Q   +H.             +W                  +W                  W
|-------------------|-------------------|-------------------|-----------------|
|-------------------|-------------------|-------------------|-----------------|
|-9---(9)-----------|-(9)---------------|-(9)---------------|-7---------------|
|-------------------|-------------------|-------------------|-----------------|
|-------------------|-------------------|-------------------|-----------------|
|-------------------|-------------------|-------------------|-----------------|


  E E E E E E E E    E  E E E E E E E    E  E E E E E E E   E E E E E E E E
|-----------------|-------------------|-------------------|-----------------|
|-----------------|-------------------|-------------------|-----------------|
|-----------------|-------------------|-------------------|-----------------|
|-5-5-5-5-5-5-5-5-|--8--8-8-8-8-8-8-8-|--1--1-1-1-1-1-1-1-|-1-1-1-1-1-1-1-1-|
|
| W                 +W                  +W                  W
|-----------------|-------------------|-------------------|-----------------|
|-----------------|-------------------|-------------------|-----------------|
|-9---------------|-(9)---------------|-(9)---------------|-7---------------|
|-----------------|-------------------|-------------------|-----------------|
|-----------------|-------------------|-------------------|-----------------|
|-----------------|-------------------|-------------------|-----------------|


  E E E E E E E E    E  E E E E E E E    E  E E E E E E E   E E E E E E E E
|-----------------|-------------------|-------------------|-----------------|
|-----------------|-------------------|-------------------|-----------------|
|-----------------|-------------------|-------------------|-----------------|
|-5-5-5-5-5-5-5-5-|--8--8-8-8-8-8-8-8-|--1--1-1-1-1-1-1-1-|-1-1-1-1-1-1-1-1-|
|
| W                 +W                  +W                  W
|-----------------|-------------------|-------------------|-----------------|
|-----------------|-------------------|-------------------|-----------------|
|-9---------------|-(9)---------------|-(9)---------------|-7---------------|
|-----------------|-------------------|-------------------|-----------------|
|-----------------|-------------------|-------------------|-----------------|
|-----------------|-------------------|-------------------|-----------------|


  E E E E E E E E    E  E E E E E E E    E  E E E E E E E   E E E E E E E E
|-----------------|-------------------|-------------------|-----------------|
|-----------------|-------------------|-------------------|-----------------|
|-----------------|-------------------|-------------------|-----------------|
|-5-5-5-5-5-5-5-5-|--8--8-8-8-8-8-8-8-|--1--1-1-1-1-1-1-1-|-1-1-1-1-1-1-1-1-|
|
| W                 +W                  +W                  W
|-----------------|-------------------|-------------------|-----------------|
|-----------------|-------------------|-------------------|-----------------|
|-9---------------|-(9)---------------|-(9)---------------|-7---------------|
|-----------------|-------------------|-------------------|-----------------|
|-----------------|-------------------|-------------------|-----------------|
|-----------------|-------------------|-------------------|-----------------|


   Verse
    E E E E E E E E    E  E E E E E E E
||------------------|-------------------|
||o-----------------|-------------------|
||o-----------------|-------------------|
||--5-5-5-5-5-5-5-5-|--8--8-8-8-8-8-8-8-|
|
|   W                 +W
||------------------|-------------------|
||o-----------------|-------------------|
||--9---------------|-(9)---------------|
||------------------|-------------------|
||o-----------------|-------------------|
||------------------|-------------------|


   E  E E E E E E E   E E E E E E E E
|-------------------|-------------------||
|-------------------|------------------o||
|-------------------|------------------o||
|--1--1-1-1-1-1-1-1-|-1-1-1-1-1-1-1-1---||
|
| +W                  W
|-------------------|-------------------||
|-------------------|------------------o||
|-(9)---------------|-7-----------------||
|-------------------|-------------------||
|-------------------|------------------o||
|-------------------|-------------------||


  E E E E E E E E    E  E E E E E E E    E  E E E E E E E   E E E E E E E E
|-----------------|-------------------|-------------------|-----------------|
|-----------------|-------------------|-------------------|-----------------|
|-----------------|-------------------|-------------------|-----------------|
|-5-5-5-5-5-5-5-5-|--8--8-8-8-8-8-8-8-|--1--1-1-1-1-1-1-1-|-1-1-1-1-1-1-1-1-|
|
| W                 +W                  +W                  W
|-----------------|-------------------|-------------------|-----------------|
|-----------------|-------------------|-------------------|-----------------|
|-9---------------|-(9)---------------|-(9)---------------|-7---------------|
|-----------------|-------------------|-------------------|-----------------|
|-----------------|-------------------|-------------------|-----------------|
|-----------------|-------------------|-------------------|-----------------|


  E E E E E E E E    E  E E E E E E E    W           +W
|-----------------|-------------------|------------|--------|
|-----------------|-------------------|------------|--------|
|-----------------|-------------------|------------|--------|
|-5-5-5-5-5-5-5-5-|--8--8-8-8-8-8-8-8-|--1---------|-(1)----|
|
| W                 +W                  +W            W
|-----------------|-------------------|------------|--------|
|-----------------|-------------------|------------|--------|
|-9---------------|-(9)---------------|-(9)--------|--7-----|
|-----------------|-------------------|------------|--------|
|-----------------|-------------------|------------|--------|
|-----------------|-------------------|------------|--------|


 Chorus
  E E E E E E E E   E E E E E E E E   E E E E E E E E   E E E E E E E E
|-----------------|-----------------|-----------------|-----------------|
|-----------------|-----------------|-----------------|-----------------|
|-----------------|-----------------|-----------------|-----------------|
|-7-7-7-7-7-7-7-7-|-7-7-7-7-7-7-7-7-|-0-0-0-0-0-0-0-0-|-0-0-0-0-2-2-3-3-|


  E E E E E E E E   E E E E E E E E   E E E E E E E E   E E E E E E E E
|-----------------|-----------------|-----------------|-----------------|
|-----------------|-----------------|-----------------|-----------------|
|-----------------|-----------------|-----------------|-----------------|
|-7-7-7-7-7-7-7-7-|-0-0-0-0-0-0-0-0-|-3-3-3-3-3-3-3-3-|-5-5-5-5-5-5-5-5-|


 Pre-Verse
  E E E E E E E E   E E E E E E E E   E E E E E E E E   E E E E E E E E
|-----------------|-----------------|-----------------|-----------------|
|-----------------|-----------------|-----------------|-----------------|
|-----------------|-----------------|-----------------|-----------------|
|-7-7-7-7-7-7-7-7-|-7-7-7-7-7-7-7-7-|-3-3-3-3-3-3-3-3-|-3-3-3-3-3-3-3-3-|


  E E E E E E E E    E  E E E E E E E    E  E E E E E E E   E E E E E E E E
|-----------------|-------------------|-------------------|-----------------|
|-----------------|-------------------|-------------------|-----------------|
|-----------------|-------------------|-------------------|-----------------|
|-5-5-5-5-5-5-5-5-|--8--8-8-8-8-8-8-8-|--1--1-1-1-1-1-1-1-|-1-1-1-1-1-1-1-1-|
|
| Gtr II
| W                 +W                  +W                  W
|-----------------|-------------------|-------------------|-----------------|
|-----------------|-------------------|-------------------|-----------------|
|-9---------------|-(9)---------------|-(9)---------------|-7---------------|
|-----------------|-------------------|-------------------|-----------------|
|-----------------|-------------------|-------------------|-----------------|
|-----------------|-------------------|-------------------|-----------------|


   Verse
    E E E E E E E E    E  E E E E E E E
||------------------|-------------------|
||o-----------------|-------------------|
||o-----------------|-------------------|
||--5-5-5-5-5-5-5-5-|--8--8-8-8-8-8-8-8-|
|
|   W                 +W
||------------------|-------------------|
||o-----------------|-------------------|
||--9---------------|-(9)---------------|
||------------------|-------------------|
||o-----------------|-------------------|
||------------------|-------------------|


   E  E E E E E E E   E E E E E E E E
|-------------------|-------------------||
|-------------------|------------------o||
|-------------------|------------------o||
|--1--1-1-1-1-1-1-1-|-1-1-1-1-1-1-1-1---||
|
| +W                  W
|-------------------|-------------------||
|-------------------|------------------o||
|-(9)---------------|-7-----------------||
|-------------------|-------------------||
|-------------------|------------------o||
|-------------------|-------------------||


    E E E E E E E E    E  E E E E E E E
||------------------|-------------------|
||o-----------------|-------------------|
||o-----------------|-------------------|
||--5-5-5-5-5-5-5-5-|--8--8-8-8-8-8-8-8-|
|
|   W                 +W
||------------------|-------------------|
||o-----------------|-------------------|
||--9---------------|-(9)---------------|
||------------------|-------------------|
||o-----------------|-------------------|
||------------------|-------------------|


   E  E E E E E E E   E E E E E E E E
|-------------------|-------------------||
|-------------------|------------------o||
|-------------------|------------------o||
|--1--1-1-1-1-1-1-1-|-1-1-1-1-1-1-1-1---||
|
| +W                  W
|-------------------|-------------------||
|-------------------|------------------o||
|-(9)---------------|-7-----------------||
|-------------------|-------------------||
|-------------------|------------------o||
|-------------------|-------------------||


 Chorus
  E E E E E E E E   E E E E E E E E   E E E E E E E E   E E E E E E E E
|-----------------|-----------------|-----------------|-----------------|
|-----------------|-----------------|-----------------|-----------------|
|-----------------|-----------------|-----------------|-----------------|
|-7-7-7-7-7-7-7-7-|-7-7-7-7-7-7-7-7-|-0-0-0-0-0-0-0-0-|-0-0-0-0-2-2-3-3-|


    E E E E E E E E   E E E E E E E E   E E E E E E E E   E E E E E E E E
||------------------|-----------------|-----------------|-------------------||
||o-----------------|-----------------|-----------------|------------------o||
||o-----------------|-----------------|-----------------|------------------o||
||--7-7-7-7-7-7-7-7-|-0-0-0-0-0-0-0-0-|-3-3-3-3-3-3-3-3-|-5-5-5-5-5-5-5-5---||


    E E E E E E E E   E E E E E E E E   E E E E E E E E   E E E E E E E E
||------------------|-----------------|-----------------|-------------------||
||o-----------------|-----------------|-----------------|------------------o||
||o-----------------|-----------------|-----------------|------------------o||
||--7-7-7-7-7-7-7-7-|-7-7-7-7-7-7-7-7-|-3-3-3-3-3-3-3-3-|-3-3-3-3-3-3-3-3---||


 Bridge
  E E E E E E E E    E  E E E E E E E   E E E E E E E E    E  E E E E E E E
|-----------------|-------------------|-----------------|--------------------|
|-----------------|-------------------|-----------------|--------------------|
|-4-4-4-4-4-4-4-4-|--4--4-4-4-4-4-4-4-|-----------------|--------------------|
|-----------------|-------------------|-2-2-2-2-2-2-2-2-|--2--2-2-2-2-2-2-2--|
|
| Gtr II
| W                 +W                  W                 +W
|-----------------|-------------------|-----------------|--------------------|
|-5---------------|-(5)---------------|-7---------------|-(7)----------------|
|-----------------|-------------------|-----------------|--------------------|
|-2---------------|-(2)---------------|-4---------------|-(4)----------------|
|-----------------|-------------------|-----------------|--------------------|
|-----------------|-------------------|-----------------|--------------------|


  E E E E E E E E    E  E E E E E E E    E E E E E E E E     E  E E E E E E E
|-----------------|-------------------|------------------|---------------------|
|-----------------|-------------------|------------------|---------------------|
|-4-4-4-4-4-4-4-4-|-------------------|------------------|---------------------|
|-----------------|--2--2-2-2-2-2-2-2-|--5-5-5-5-5-5-5-5-|---7--7-7-7-7-7-7-7--|
|
| W                 +W                   W                  +W
|-----------------|-------------------|------------------|---------------------|
|-9---------------|-(9)---------------|-12---------------|-(12)----------------|
|-----------------|-------------------|------------------|---------------------|
|-6---------------|-(6)---------------|--9---------------|--(9)----------------|
|-----------------|-------------------|------------------|---------------------|
|-----------------|-------------------|------------------|---------------------|


  E E E E E E E E   E E E E E E E E   E E E E E E E E   E E E E E E E E
|-----------------|-----------------|-----------------|------------------|
|-----------------|-----------------|-----------------|------------------|
|-4-4-4-4-4-4-4-4-|-4-4-4-4-4-4-4-4-|-----------------|------------------|
|-----------------|-----------------|-2-2-2-2-2-2-2-2-|-2-2-2-2-2-2-2-2--|


  E E E E E E E E   E E E E E E E E   E E E E E E E E   E E E E E E E E
|-----------------|-----------------|-----------------|------------------|
|-----------------|-----------------|-----------------|------------------|
|-4-4-4-4-4-4-4-4-|-----------------|-----------------|------------------|
|-----------------|-2-2-2-2-2-2-2-2-|-5-5-5-5-5-5-5-5-|-7-7-7-7-7-7-7-7--|


     E E E E   E   E  E  E     E   E  E  E  E  E   E   E
||-------------------------|-----------------------------|
||o------------------------|-----------------------------|
||o------------------------|-----------------------------|
||---9-9-9-9--11--11-11-11-|--12--12-12-12-14-14--14--14-|
|
|   Gtr II
|    
|    H        +H              +H.                 +Q
||-------------------------|-----------------------------|
||o------------------------|-----------------------------|
||--13-------(13)----------|-(13)----------------(13)----|
||-------------------------|-----------------------------|
||o------------------------|-----------------------------|
||-------------------------|-----------------------------|


  E E E E E E E E   E E E E E E E E
|-----------------|------------------||
|-----------------|-----------------o||
|-----------------|-----------------o||
|-9-9-9-9-9-9-9-9-|-9-9-9-9-9-9-9-9--||
|
| W                 W
|-----------------|------------------||
|-----------------|-----------------o||
|-----------------|------------------||
|-----------------|------------------||
|-----------------|-----------------o||
|-----------------|------------------||


   Out-Chorus
     E E E E E E E E     E  E E E E E E E
||-------------------|--------------------|
||o------------------|--------------------|
||o--4-4-4-4-4-4-4-4-|---4--4-4-4-4-4-4-4-|
||-------------------|--------------------|
|
|    W                  +W
||-------------------|--------------------|
||o-14---------------|-(14)---------------|
||--13---------------|-(13)---------------|
||-------------------|--------------------|
||o------------------|--------------------|
||-------------------|--------------------|


   E E E E E E E E     E  E E E E E E E
|------------------|--------------------|
|------------------|--------------------|
|------------------|--------------------|
|--2-2-2-2-2-2-2-2-|---2--2-2-2-2-2-2-2-|
|
|  W                  +W
|------------------|--------------------|
|-19---------------|-(19)---------------|
|-18---------------|-(18)---------------|
|------------------|--------------------|
|------------------|--------------------|
|------------------|--------------------|


                                          1.
   E E E E E E E E     E  E E E E E E E   E E E E E E E E   E E E E E E E E
|------------------|--------------------|-----------------|-------------------||
|------------------|--------------------|-----------------|------------------o||
|--4-4-4-4-4-4-4-4-|--------------------|-----------------|------------------o||
|------------------|---2--2-2-2-2-2-2-2-|-5-5-5-5-5-5-5-5-|-7-7-7-7-7-7-7-7---||
|
|  W                  +W                  W                 W
|------------------|--------------------|-----------------|-------------------||
|-14---------------|-(14)---------------|-----------------|------------------o||
|-13---------------|-(13)---------------|-----------------|-------------------||
|------------------|--------------------|-----------------|-------------------||
|------------------|--------------------|-----------------|------------------o||
|------------------|--------------------|-----------------|-------------------||


 Outro
  2.
  W          +W           W          +W
|----------|------------|----------|--------|
|----------|------------|----------|--------|
|----------|------------|----------|--------|
|-5--------|-(5)--------|-9--------|-(9)----|


  +W           +W           +W           +W
|------------|------------|------------|--------*|
|------------|------------|------------|--------*|
|------------|------------|------------|--------*|
|-(9)--------|-(9)--------|-(9)--------|-(9)----*|


Duration Legend
---------------
W - whole; H - half; Q - quarter; E - 8th; S - 16th; T - 32nd; X - 64th; a - acciaccatura
+ - note tied to previous; . - note dotted; .. - note double dotted
Uncapitalized letters represent notes that are staccato (1/2 duration)
Irregular groupings are notated above the duration line
Duration letters will always appear directly above the note/fret number it represents the
duration for.  Duration letters with no fret number below them represent rests.  Multi-
bar rests are notated in the form Wxn, where n is the number of bars to rest for.  Low
melody durations appear below the staff

Tablature Legend
----------------
 h   - hammer-on
 p   - pull-off
 b   - bend
 pb  - pre-bend
 r   - bend release (if no number after the r, then release immediately)
 /\  - slide into or out of (from/to "nowhere")
 s   - legato slide
 S   - shift slide
  - natural harmonic
[n]  - artificial harmonic
n(n) - tapped harmonic
 ~   - vibrato
 tr  - trill
 T   - tap
 TP  - trem. picking
 PM  - palm muting
\n/  - tremolo bar dip; n = amount to dip
 \n  - tremolo bar down
 n/  - tremolo bar up
/n\  - tremolo bar inverted dip
 =   - hold bend; also acts as connecting device for hammers/pulls
 <>  - volume swell (louder/softer)
 x   - on rhythm slash represents muted slash
 o   - on rhythm slash represents single note slash

Misc Legend
-----------
 |  - bar
||  - double bar
||o - repeat start
o|| - repeat end
*|  - double bar (ending)
 :  - bar (freetime)
 $  - Segno
 &  - Coda
Tempo markers -  = BPM(8/16=s8/s16), where s8 = swing 8ths, s16 = swing 16ths





Comments


Popular 69 Eyes tabs & chords
Brandon Lee 1 Bass Tabs
Christina Death Bass Tabs
D.I.D Bass Tabs
Night Watch Chords
Wasting The Dawn Chords
Christina Death Tabs
Dance D Amour Intro 1 Tabs
Dead N' Gone Tabs
Lost Boys 1 Tabs
Wasting The Dawn Ukulele


Song lyrics



↑ Back to top | Tablatures and chords are parodies/interpretations of the original songs. You may use it for private study, scholarship, research or language learning purposes only
© 2014 AZChords.com Contact us | Privacy policy | DMCA | Add/correct tabs | Request tabs | Top 50 tabs