>
 >
Framed In Blood

Framed In Blood Guitar Tabs

69 Eyes - Framed In Blood chords, tabs, tablatures, lyrics

Guitar lessons | Add/correct | Request | Top 50 tabs Artists:  A B C D E F G H I J K L M N O P Q R S T U V W X Y Z 0-9

Framed In Blood Guitar Tabs – 69 Eyes

CD, Sheet music, Poster

Do you like Framed In Blood? Share with your friends now
Bass TabsBass Tabs v2Tabs
#------------------------------------------------------------------------------##

                                 FRAMED IN BLOOD
                           As recorded by The 69 Eyes
                        (From the 2000 Album BLESSED BE)

Words by Jyrki 69

Music by Bazie/Timo Timo
Arranged by Johnny Lee Micheals

          D5                   A5                   F5
      x 5 7 7 x x          7 7 7 x x x          3 3 3 x x x

Gtr I (Db Ab Db Gb Bb Eb) - 'Bazie (dist.)'
Gtr II (Db Ab Db Gb Bb Eb) - 'Timo Timo (clean w/ delay)'
Gtr III (Db Ab Db Gb Bb Eb) - 'Timo Timo (dist.)'

 Intro
  Moderately Fast Rock Q=134
  D5
 4/4
  Gtr I
    PM|   PM|   PM--|   PM|     ~      PM|   PM|   PM--|   PM|     ~
  E E E E E E E E   E E E E E E Q    E E E E E E E E   E E E E E E Q
|-----------------|----------------|-----------------|-----------------|
|-----------------|----------------|-----------------|-----------------|
|-----------------|----------------|-----------------|-----------------|
|-7-----5-----7---|---5-----3s5-5--|-7-----5-----7---|---5-----3s5-5---|
|-5-----5-----5---|---5-----3s5-5--|-5-----5-----5---|---5-----3s5-5---|
|---0-0---0-0---0-|-0---0-0--------|---0-0---0-0---0-|-0---0-0---------|


    PM|    PM-|   PM--|     PM|     ~      PM|    PM-|   PM--|     PM|     ~
  E E E E  E  E E E    E  E E E E E Q    E E E E  E  E E E    E  E E E E E Q
|-------------------|------------------|-------------------|------------------|
|-------------------|------------------|-------------------|------------------|
|-------------------|------------------|-------------------|------------------|
|-7-----5-------7---|-----5-----3s5-5--|-7-----5-------7---|-----5-----3s5-5--|
|-5-----5-------5---|-----5-----3s5-5--|-5-----5-------5---|-----5-----3s5-5--|
|---0-0----0--0---0-|--0----0-0--------|---0-0----0--0---0-|--0----0-0--------|
|
| Gtr II
| E E E E +H          +W                 E E E E +H          +W
|-------------------|------------------|-------------------|------------------|
|-------------------|------------------|-------------------|------------------|
|---2---0-(0)-------|-(0)--------------|---2---0-(0)-------|-(0)--------------|
|-0---0-------------|------------------|-0---0-------------|------------------|
|-------------------|------------------|-------------------|------------------|
|-------------------|------------------|-------------------|------------------|


                                         F5                 A5
                                         Gtrs I, III
    PM|    PM-|   PM--|     PM|     ~
  E E E E  E  E E E    E  E E E E E Q    Q.   Q.   Q    +E  Q.   Q  Q
|-------------------|------------------|--------------|-----------------||
|-------------------|------------------|--------------|-----------------||
|-------------------|------------------|--------------|-----------------||
|-7-----5-------7---|-----5-----3s5-5--|-3----3----3--|-(3)-7----7--7\--||
|-5-----5-------5---|-----5-----3s5-5--|-3----3----3--|-(3)-7----7--7\--||
|---0-0----0--0---0-|--0----0-0--------|-3----3----3--|-(3)-7----7--7\--||
|
| E E E E +H          +W                 W               W
|-------------------|------------------|--------------|-----------------||
|-------------------|------------------|--------------|-----------------||
|---2---0-(0)-------|-(0)--------------|--------------|-----------------||
|-0---0-------------|------------------|--------------|-----------------||
|-------------------|------------------|--------------|-----------------||
|-------------------|------------------|--------------|-----------------||


   Chorus
    $
    D5
   4/4
    Gtr I
    E  E E  E  +E  E Q    E  E E  E  +E   E Q
    |  | |  |   |  | |    |  | |  |   |   | |
    /  / /  /   /  / /    /  / /  /   /   / /

    Gtr III
    E  E E  E  +E  E Q    E  E E  E  +E   E Q
||----------------------|--------10-(10)-------|
||o---10---10-(10)---8--|---10-----------10-8--|
||--7----7---------7----|-7----7---------------|
||----------------------|----------------------|
||o---------------------|----------------------|
||----------------------|----------------------|


  F5                    A5
   E E  E E +E  E  Q    E E E E +E  E Q
   | |  | |  |  |  |    | | | |  |  | |
   / /  / /  /  /  /    / / / /  /  / /

   E E  E E +Q     Q    E E E E +E  E Q
|---------------------|-------------------||
|----8----8-(8)-------|---8---8-(8)---6--o||
|-10---10---------10--|-5---5-------5-----||
|---------------------|-------------------||
|---------------------|------------------o||
|---------------------|-------------------||


 Verse
  D5
  Gtr I
       PM|      PM-|   PM--|      PM|
  E    E E  E   E  E E E    E   E E E E E Q
|------------------------|-------------------|
|------------------------|-------------------|
|------------------------|-------------------|
|-7---------5--------7---|------5-----3s5-5--|
|-5---------5--------5---|------5-----3s5-5--|
|------0-0------0--0---0-|--0-----0-0--------|
|
| Gtr III
|                           >
| Q.       +E  +H          +H         H
|------------------------|-------------------|
|------------------------|-------------------|
|-5b7======(5)-(5)-------|-(5)r--------------|
|------------------------|-------------------|
|------------------------|-------------------|
|------------------------|-------------------|


  G5                      F5      G5
    PM|    PM-|   PM--|     PM|
  E E E E  E  E E E    E  E E E E E Q
|-------------------|------------------|
|-------------------|------------------|
|-------------------|------------------|
|-------------------|------------------|
|-5-----5-------5---|-----3-----3s5-5--|
|-5-5-5-5--5--5-5-5-|--5--3-3-3-3s5-5--|
|
| Gtr II
| E E E E +H          +W
|-------------------|------------------|
|-------------------|------------------|
|-------------------|------------------|
|---3---5-(5)-------|-(5)--------------|
|-5---5-------------|------------------|
|-------------------|------------------|


      PM|    PM-|   PM--|     PM|
    E E E E  E  E E E    E  E E E E E Q
||--------------------|------------------|
||o-------------------|------------------|
||--------------------|------------------|
||--7-----5-------7---|-----5-----3s5-5--|
||o-5-----5-------5---|-----5-----3s5-5--|
||----0-0----0--0---0-|--0----0-0--------|
|
|   E E E E +H          +W
||--------------------|------------------|
||o-------------------|------------------|
||----2---0-(0)-------|-(0)--------------|
||--0---0-------------|------------------|
||o-------------------|------------------|
||--------------------|------------------|


  G5                      F5      G5
    PM|    PM-|   PM--|     PM|
  E E E E  E  E E E    E  E E E E E Q
|-------------------|--------------------||
|-------------------|-------------------o||
|-------------------|--------------------||
|-------------------|--------------------||
|-5-----5-------5---|-----3-----3s5-5---o||
|-5-5-5-5--5--5-5-5-|--5--3-3-3-3s5-5----||
|
| E E E E +H          +W
|-------------------|--------------------||
|-------------------|-------------------o||
|-------------------|--------------------||
|---3---5-(5)-------|-(5)----------------||
|-5---5-------------|-------------------o||
|-------------------|--------------------||


                                                       D.S.
                                         F5                A5
    PM|    PM-|   PM--|     PM|
  E E E E  E  E E E    E  E E E E E Q     H      +Q   Q    W
|-------------------|------------------|-----------------|------||
|-------------------|------------------|--------------8--|------||
|-------------------|------------------|-10-----(10)-----|-9----||
|-7-----5-------7---|-----5-----3s5-5--|-----------------|------||
|-5-----5-------5---|-----5-----3s5-5--|-----------------|------||
|---0-0----0--0---0-|--0----0-0--------|-----------------|------||
|
|                                        Gtr III
| E E E E +H          +W                  H.          Q    W
|-------------------|------------------|-----------------|------||
|-------------------|------------------|-----------------|------||
|---2---0-(0)-------|-(0)--------------|-----------------|------||
|-0---0-------------|------------------|--3-----------3--|-7----||
|-------------------|------------------|--3-----------3--|-7----||
|-------------------|------------------|--3-----------3--|-7----||


   Chorus
    D5
    Gtr I
    E  E E  E  +E  E Q    E  E E  E  +E   E Q
    |  | |  |   |  | |    |  | |  |   |   | |
    /  / /  /   /  / /    /  / /  /   /   / /

    Gtr III
    E  E E  E  +E  E Q    E  E E  E  +E   E Q
||----------------------|--------10-(10)-------|
||o---10---10-(10)---8--|---10-----------10-8--|
||--7----7---------7----|-7----7---------------|
||----------------------|----------------------|
||o---------------------|----------------------|
||----------------------|----------------------|


  F5                    A5
   E E  E E +E  E  Q    E E E E +E  E Q
   | |  | |  |  |  |    | | | |  |  | |
   / /  / /  /  /  /    / / / /  /  / /

   E E  E E +Q     Q    E E E E +E  E Q    4x
|---------------------|--------------------||
|----8----8-(8)-------|---8---8-(8)---6---o||
|-10---10---------10--|-5---5-------5------||
|---------------------|--------------------||
|---------------------|-------------------o||
|---------------------|--------------------||


 Interlude
  D5
  Gtr I
                                                 >
  W                   +W           +W           +W
|-------------------|------------|------------|---------|
|-------------------|------------|------------|---------|
|-------------------|------------|------------|---------|
|-0-----------------|-(0)--------|-(0)--------|-(0)-----|
|-0-----------------|-(0)--------|-(0)--------|-(0)-----|
|-0-----------------|-(0)--------|-(0)--------|-(0)-----|
|
| Gtr III
|                                                >
| Q.     +E  +H       +W           +W           +W
|-------------------|------------|------------|---------|
|-------------------|------------|------------|---------|
|-5b7====(5)-(5)----|-(5)--------|-(5)--------|-(5)r----|
|-------------------|------------|------------|---------|
|-------------------|------------|------------|---------|
|-------------------|------------|------------|---------|


  D5
  Gtr I
    PM|   PM|   PM--|   PM|     ~      PM|   PM|   PM--|   PM|     ~
  E E E E E E E E   E E E E E E Q    E E E E E E E E   E E E E E E Q
|-----------------|----------------|-----------------|----------------|
|-----------------|----------------|-----------------|----------------|
|-----------------|----------------|-----------------|----------------|
|-7-----5-----7---|---5-----3s5-5--|-7-----5-----7---|---5-----3s5-5--|
|-5-----5-----5---|---5-----3s5-5--|-5-----5-----5---|---5-----3s5-5--|
|---0-0---0-0---0-|-0---0-0--------|---0-0---0-0---0-|-0---0-0--------|


    PM|    PM-|   PM--|     PM|     ~      PM|    PM-|   PM--|     PM|     ~
  E E E E  E  E E E    E  E E E E E Q    E E E E  E  E E E    E  E E E E E Q
|-------------------|------------------|-------------------|------------------|
|-------------------|------------------|-------------------|------------------|
|-------------------|------------------|-------------------|------------------|
|-7-----5-------7---|-----5-----3s5-5--|-7-----5-------7---|-----5-----3s5-5--|
|-5-----5-------5---|-----5-----3s5-5--|-5-----5-------5---|-----5-----3s5-5--|
|---0-0----0--0---0-|--0----0-0--------|---0-0----0--0---0-|--0----0-0--------|
|
| Gtr II
| E E E E +H          +W                 E E E E +H          +W
|-------------------|------------------|-------------------|------------------|
|-------------------|------------------|-------------------|------------------|
|---2---0-(0)-------|-(0)--------------|---2---0-(0)-------|-(0)--------------|
|-0---0-------------|------------------|-0---0-------------|------------------|
|-------------------|------------------|-------------------|------------------|
|-------------------|------------------|-------------------|------------------|


                                         F5                 A5
                                         Gtrs I, III
    PM|    PM-|   PM--|     PM|     ~
  E E E E  E  E E E    E  E E E E E Q    Q.   Q.   Q    +E  Q.   H
|-------------------|------------------|--------------|----------------||
|-------------------|------------------|--------------|----------------||
|-------------------|------------------|--------------|----------------||
|-7-----5-------7---|-----5-----3s5-5--|-3----3----3--|-(3)-7----7\----||
|-5-----5-------5---|-----5-----3s5-5--|-3----3----3--|-(3)-7----7\----||
|---0-0----0--0---0-|--0----0-0--------|-3----3----3--|-(3)-7----7\----||
|
| E E E E +H          +W                 W               W
|-------------------|------------------|--------------|----------------||
|-------------------|------------------|--------------|----------------||
|---2---0-(0)-------|-(0)--------------|--------------|----------------||
|-0---0-------------|------------------|--------------|----------------||
|-------------------|------------------|--------------|----------------||
|-------------------|------------------|--------------|----------------||


   Out-Chorus
    D5
    Gtr I
    E  E E  E  +E  E Q    E  E E  E  +E   E Q
    |  | |  |   |  | |    |  | |  |   |   | |
    /  / /  /   /  / /    /  / /  /   /   / /

    Gtr III
    E  E E  E  +E  E Q    E  E E  E  +E   E Q
||----------------------|--------10-(10)-------|
||o---10---10-(10)---8--|---10-----------10-8--|
||--7----7---------7----|-7----7---------------|
||----------------------|----------------------|
||o---------------------|----------------------|
||----------------------|----------------------|


  F5                    A5
   E E  E E +E  E  Q    E E E E +E  E Q
   | |  | |  |  |  |    | | | |  |  | |
   / /  / /  /  /  /    / / / /  /  / /

   E E  E E +Q     Q    E E E E +E  E Q    6x
|---------------------|--------------------||
|----8----8-(8)-------|---8---8-(8)---6---o||
|-10---10---------10--|-5---5-------5------||
|---------------------|--------------------||
|---------------------|-------------------o||
|---------------------|--------------------||


 Outro
  A5
  E E E E +E  E Q    E E E E +E  E Q
  | | | |  |  | |    | | | |  |  | |
  / / / /  /  / /    / / / /  /  / /

  E E E E +E  E Q    E E E E +E  E Q
|------------------|------------------|
|---8---8-(8)---6--|---8---8-(8)---6--|
|-5---5-------5----|-5---5-------5----|
|------------------|------------------|
|------------------|------------------|
|------------------|------------------|
|
| W                  W
|------------------|------------------|
|------------------|------------------|
|------------------|------------------|
|------------------|------------------|
|------------------|------------------|
|------------------|------------------|


                           H.=H
  D5
  W                         W
                            >
  Q.       +E  +H          +H         H
|------------------------|-------------------|
|------------------------|-------------------|
|-5b7======(5)-(5)-------|-(5)r--------------|
|------------------------|-------------------|
|------------------------|-------------------|
|------------------------|-------------------|
|
| Gtr I
|      PM|      PM-|   PM--|      PM|     ~
| E    E E  E   E  E E E    E   E E E E E Q
|------------------------|-------------------|
|------------------------|-------------------|
|------------------------|-------------------|
|-7---------5--------7---|------5-----3s5-5--|
|-5---------5--------5---|------5-----3s5-5--|
|------0-0------0--0---0-|--0-----0-0--------|


  Gtr I
                                 >
    PM|   PM
  E E E E E E Q    +W           +W
|----------------|------------|--------*|
|----------------|------------|--------*|
|----------------|------------|--------*|
|-7-----5-----7--|-(7)--------|-(7)----*|
|-5-----5-----5--|-(5)--------|-(5)----*|
|---0-0---0-0----|------------|--------*|


Duration Legend
---------------
W - whole; H - half; Q - quarter; E - 8th; S - 16th; T - 32nd; X - 64th; a - acciaccatura
+ - note tied to previous; . - note dotted; .. - note double dotted
Uncapitalized letters represent notes that are staccato (1/2 duration)
Irregular groupings are notated above the duration line
Duration letters will always appear directly above the note/fret number it represents the
duration for.  Duration letters with no fret number below them represent rests.  Multi-
bar rests are notated in the form Wxn, where n is the number of bars to rest for.  Low
melody durations appear below the staff

Tablature Legend
----------------
 h   - hammer-on
 p   - pull-off
 b   - bend
 pb  - pre-bend
 r   - bend release (if no number after the r, then release immediately)
 /\  - slide into or out of (from/to "nowhere")
 s   - legato slide
 S   - shift slide
  - natural harmonic
[n]  - artificial harmonic
n(n) - tapped harmonic
 ~   - vibrato
 tr  - trill
 T   - tap
 TP  - trem. picking
 PM  - palm muting
\n/  - tremolo bar dip; n = amount to dip
 \n  - tremolo bar down
 n/  - tremolo bar up
/n\  - tremolo bar inverted dip
 =   - hold bend; also acts as connecting device for hammers/pulls
 <>  - volume swell (louder/softer)
 x   - on rhythm slash represents muted slash
 o   - on rhythm slash represents single note slash

Misc Legend
-----------
 |  - bar
||  - double bar
||o - repeat start
o|| - repeat end
*|  - double bar (ending)
 :  - bar (freetime)
 $  - Segno
 &  - Coda
Tempo markers -  = BPM(8/16=s8/s16), where s8 = swing 8ths, s16 = swing 16ths





Comments


Popular 69 Eyes tabs & chords
Brandon Lee Bass Tabs
D.I.D Bass Tabs
Feel Berlin Bass Tabs
Framed In Blood Bass Tabs
Stolen Season Bass Tabs
Night Watch Chords
Dance D Amour Tabs
From Dusk Till Dawn Tabs
Shadow Of Your Love Intro Tabs
Brandon Lee Ukulele


Song lyrics



↑ Back to top | Tablatures and chords are parodies/interpretations of the original songs. You may use it for private study, scholarship, research or language learning purposes only
© 2014 AZChords.com Contact us | Privacy policy | DMCA | Add/correct tabs | Request tabs | Top 50 tabs