>
 >
Framed In Blood 1

Framed In Blood 1 Bass Tabs

69 Eyes - Framed In Blood 1 chords, tabs, tablatures, lyrics

Guitar lessons | Add/correct | Request | Top 50 tabs Artists:  A B C D E F G H I J K L M N O P Q R S T U V W X Y Z 0-9

Framed In Blood 1 Bass Tabs – 69 Eyes

CD, Sheet music, Poster

Do you like Framed In Blood 1? Share with your friends now
Bass TabsBass Tabs v2Tabs
#------------------------------------------------------------------------------##

                           FRAMED IN BLOOD (Bassline)
                           As recorded by The 69 Eyes
                        (From the 2000 Album BLESSED BE)

Words by Jyrki 69

Music by Bazie/Timo Timo
Arranged by Johnny Lee Micheals

Gtr I (Db Ab Db Gb) - 'Archzie'
Gtr II (Db Ab Db Gb Bb Eb) - 'Johnny Lee Micheals'
Gtr III (Db Ab Db Gb Bb Eb) - 'Johnny Lee Micheals'

 Intro
  Moderately Fast Rock Q=134
 4/4
  Gtr I
  Wx8
|--------|
|--------|
|--------|
|--------|


  E E E E  E  E E E    E  E E E E E E E
|-------------------|-------------------|
|-------------------|-------------------|
|-5-5-5-5--5--5-5-5-|--5--5-5-5-5-5-5-5-|
|-------------------|-------------------|
|
| Gtr II
| E E E E +H          +W
|-------------------|-------------------|
|-------------------|-------------------|
|---2---0-(0)-------|-(0)---------------|
|-0---0-------------|-------------------|
|-------------------|-------------------|
|-------------------|-------------------|


  E  E E E  E  E E E    E  E E E E E E E
|--------------------|-------------------||
|--------------------|-------------------||
|--------------------|-------------------||
|-3--3-3-3--3--3-3-3-|--3--7-7-7-7-7-7-7-||
|
| E  E E E +H          +W
|--------------------|-------------------||
|---10---8-(8)-------|-(8)---------------||
|-7----7-------------|-------------------||
|--------------------|-------------------||
|--------------------|-------------------||
|--------------------|-------------------||


   Chorus
    $
    E  E E  E   E  E E E   E  E E  E   E   E E E
||-----------------------|-----------------------|
||o----------------------|-----------------------|
||o-5--5-5--5---5--5-5-5-|-5--5-5--5---5---5-5-5-|
||-----------------------|-----------------------|
|
|   E  E E  E  +E  E Q     E  E E  E  +E   E Q
||-----------------------|--------10-(10)--------|
||o---10---10-(10)---8---|---10-----------10-8---|
||--7----7---------7-----|-7----7----------------|
||-----------------------|-----------------------|
||o----------------------|-----------------------|
||-----------------------|-----------------------|


   E E  E E  E  E  E E   E E E E  E  E E E
|----------------------|---------------------||
|----------------------|--------------------o||
|----------------------|--------------------o||
|--3-3--3-3--3--3--3-3-|-7-7-7-7--7--7-7-7---||
|
|  E E  E E +Q     Q     E E E E +E  E Q
|----------------------|---------------------||
|----8----8-(8)--------|---8---8-(8)---6----o||
|-10---10---------10---|-5---5-------5-------||
|----------------------|---------------------||
|----------------------|--------------------o||
|----------------------|---------------------||


   Verse
    E E E E E E E E    E  E E E E E E E
||------------------|-------------------|
||o-----------------|-------------------|
||o-----------------|-------------------|
||--0-0-0-0-0-0-0-0-|--0--0-0-0-0-0-0-0-|
|
|   W                 +W
||------------------|-------------------|
||o-----------------|-------------------|
||------------------|-------------------|
||------------------|-------------------|
||o-5---------------|-(5)---------------|
||------------------|-------------------|


   E  E E E E E E E    E  E E E E E E E
|-------------------|---------------------||
|-------------------|--------------------o||
|-------------------|--------------------o||
|--5--5-5-5-5-5-5-5-|--5--3-3-3-3S5-5-5---||
|
| +W                  +W
|-------------------|---------------------||
|-------------------|--------------------o||
|-------------------|---------------------||
|-------------------|---------------------||
|-(5)---------------|-(5)----------------o||
|-------------------|---------------------||


   E  E E E E E E E    E  E E E E E E E    E  E E E E E E E   E E E E E E E E
|-------------------|-------------------|-------------------|-----------------|
|-------------------|-------------------|-------------------|-----------------|
|-------------------|-------------------|-------------------|-----------------|
|--0--0-0-0-0-0-0-0-|--0--0-0-0-0-0-0-0-|--5--5-5-5-5-5-5-5-|-5-3-3-3-3S5-5-5-|
|
|  >
| +W                  +W                  +W                  W
|-------------------|-------------------|-------------------|-----------------|
|-------------------|-------------------|-------------------|-----------------|
|-------------------|-------------------|-------------------|-----------------|
|-------------------|-------------------|-------------------|-----------------|
|-(5)---------------|-(5)---------------|-(5)---------------|-----------------|
|-------------------|-------------------|-------------------|-----------------|


                                                                    D.S.
  E E E E E E E E   E E E E E E E E    E E E E  E E E E   E E E E E E E E
|-----------------|-----------------|-------------------|-----------------||
|-----------------|-----------------|-------------------|-----------------||
|-----------------|-----------------|-------------------|-----------------||
|-0-0-0-0-0-0-0-0-|-0-0-0-0-0-0-0-0-|--3-3-3-3--3-3-3-3-|-7-7-7-7-7-7-7-7-||
|
| Gtr II
| W                 W                  H        Q   Q     W
|-----------------|-----------------|-------------------|-----------------||
|-----------------|-----------------|---------------8---|-----------------||
|-----------------|-----------------|-10-------10-------|-9---------------||
|-----------------|-----------------|-------------------|-----------------||
|-----------------|-----------------|-------------------|-----------------||
|-----------------|-----------------|-------------------|-----------------||


   Chorus
    E  E E  E   E  E E E   E  E E  E   E   E E E
||-----------------------|-----------------------|
||o----------------------|-----------------------|
||o-5--5-5--5---5--5-5-5-|-5--5-5--5---5---5-5-5-|
||-----------------------|-----------------------|
|
|   E  E E  E  +E  E Q     E  E E  E  +E   E Q
||-----------------------|--------10-(10)--------|
||o---10---10-(10)---8---|---10-----------10-8---|
||--7----7---------7-----|-7----7----------------|
||-----------------------|-----------------------|
||o----------------------|-----------------------|
||-----------------------|-----------------------|


   E E  E E  E  E  E E   E E E E  E  E E E   4x
|----------------------|---------------------||
|----------------------|--------------------o||
|----------------------|--------------------o||
|--3-3--3-3--3--3--3-3-|-7-7-7-7--7--7-7-7---||
|
|  E E  E E +Q     Q     E E E E +E  E Q     4x
|----------------------|---------------------||
|----8----8-(8)--------|---8---8-(8)---6----o||
|-10---10---------10---|-5---5-------5-------||
|----------------------|---------------------||
|----------------------|--------------------o||
|----------------------|---------------------||


 Interlude
                                          >
  W          +H.      Q     W            +W
|----------|-------------|------------|---------|
|----------|-------------|------------|---------|
|----------|-------------|------------|---------|
|-0--------|-(0)------0s=|=12---------|-(12)----|
|
|                           >
| W          +W            +W            +W
|----------|-------------|------------|---------|
|----------|-------------|------------|---------|
|----------|-------------|------------|---------|
|----------|-------------|------------|---------|
|-5--------|-(5)---------|-(5)--------|--(5)----|
|----------|-------------|------------|---------|


  W          +W           W          +W
|----------|------------|----------|--------|
|----------|------------|----------|--------|
|----------|------------|----------|--------|
|-0--------|-(0)--------|-0--------|-(0)----|


  W          +W           +W                 +W
|----------|------------|------------------|--------|
|----------|------------|------------------|--------|
|----------|------------|------------------|--------|
|-0--------|-(0)--------|-(0)--------------|-(0)----|
|
| Gtr II
| W           W            E  E E E +H       +W
|----------|------------|------------------|--------|
|----------|------------|------------------|--------|
|----------|------------|-----2---0-(0)----|-(0)----|
|----------|------------|--0----0----------|--------|
|----------|------------|------------------|--------|
|----------|------------|------------------|--------|


  W                 +W           Q.      Q.       Q     +E   Q.    H
|-----------------|------------|---------------------|-------------------||
|-----------------|------------|---------------------|-------------------||
|-----------------|------------|---------------------|-------------------||
|-0---------------|-(0)--------|-3-------3--------3--|--(3)--7-----7\----||
|
| E  E E E +H       +W           E   E E E  +Q    Q     +E   Q.    H
|-----------------|------------|---------------------|-------------------||
|---10---8-(8)----|-(8)--------|----10---8--(8)--10--|-(10)-13----15-----||
|-7----7----------|------------|-7-----7-------------|-------------------||
|-----------------|------------|---------------------|-------------------||
|-----------------|------------|---------------------|-------------------||
|-----------------|------------|---------------------|-------------------||


 Out-Chorus
   E E E E   E  E E E     E  E E E E E E E
|---------------------|--------------------|
|---------------------|--------------------|
|--5-5-5-5---5--5-5-5-|---5--5-5-5-5-5-5-5-|
|---------------------|--------------------|
|
|  <
|  H        +H           +W
|---------------------|--------------------|
|-15-------(15)-------|-(15)---------------|
|---------------------|--------------------|
|---------------------|--------------------|
|---------------------|--------------------|
|---------------------|--------------------|


    E  E E E E E E E    E E E E   E  E   E  E
|--------------------|------------------------|
|--------------------|------------------------|
|--------------------|------------------------|
|---3--3-3-3-3-3-3-3-|--7-7-7-7---7--7---7--7-|
|
|                       <                >
|  +W                   H        +Q     +Q
|--------------------|------------------------|
|-(15)---------------|-17-------(17)---(17)---|
|--------------------|------------------------|
|--------------------|------------------------|
|--------------------|------------------------|
|--------------------|------------------------|


   E E E E   E  E E E     E  E E E E E E E
|---------------------|--------------------|
|---------------------|--------------------|
|--5-5-5-5---5--5-5-5-|---5--5-5-5-5-5-5-5-|
|---------------------|--------------------|
|
|  <
|  H        +H           +W
|---------------------|--------------------|
|-18-------(18)-------|-(18)---------------|
|---------------------|--------------------|
|---------------------|--------------------|
|---------------------|--------------------|
|---------------------|--------------------|
|
| Gtr III
|  W                      W
|---------------------|--------------------|
|---------------------|--------------------|
|---------------------|--------------------|
|---------------------|--------------------|
|---------------------|--------------------|
|---------------------|--------------------|


    E  E E E   E  E E E    E E   E  E   E  E   E  E
|-----------------------|---------------------------|
|-----------------------|---------------------------|
|-----------------------|---------------------------|
|---3--3-3-3---3--3-3-3-|--7-7---7--7---7--7---7--7-|
|
|              >           <                   >
|  +H         +H           H           +Q     +Q
|-----------------------|---------------------------|
|-(18)-------(18)-------|-20----------(20)---(20)---|
|-----------------------|---------------------------|
|-----------------------|---------------------------|
|-----------------------|---------------------------|
|-----------------------|---------------------------|
|
|                          <
|   H          H           Q    +H.
|-----------------------|---------------------------|
|-----------------------|---------------------------|
|--(7)------------------|-12---(12)-----------------|
|-----------------------|---------------------------|
|-----------------------|---------------------------|
|-----------------------|---------------------------|


   E E   E  E   E  E E E     E  E E E E E E E
|------------------------|--------------------|
|------------------------|--------------------|
|--5-5---5--5---5--5-5-5-|---5--5-5-5-5-5-5-5-|
|------------------------|--------------------|
|
|  <
|  H           +H           +W
|------------------------|--------------------|
|-22----------(22)-------|-(22)---------------|
|------------------------|--------------------|
|------------------------|--------------------|
|------------------------|--------------------|
|------------------------|--------------------|
|
|  <
|  Q    +H.                 +W
|------------------------|--------------------|
|------------------------|--------------------|
|-10---(10)--------------|-(10)---------------|
|------------------------|--------------------|
|------------------------|--------------------|
|------------------------|--------------------|


    E  E E E   E  E E E    E E   E  E   E  E   E  E
|-----------------------|---------------------------|
|-----------------------|---------------------------|
|-----------------------|---------------------------|
|---3--3-3-3---3--3-3-3-|--7-7---7--7---7--7---7--7-|
|
|              >           <                   >
|  +H         +H           H           +Q     +Q
|-----------------------|---------------------------|
|-(22)-------(22)-------|-20----------(20)---(20)---|
|-----------------------|---------------------------|
|-----------------------|---------------------------|
|-----------------------|---------------------------|
|-----------------------|---------------------------|
|
|                          <
|  +W                      Q    +H.
|-----------------------|---------------------------|
|-----------------------|---------------------------|
|-(10)------------------|-12---(12)-----------------|
|-----------------------|---------------------------|
|-----------------------|---------------------------|
|-----------------------|---------------------------|


   E E   E  E   E  E E E     E  E E E E E E E
|------------------------|--------------------|
|------------------------|--------------------|
|--5-5---5--5---5--5-5-5-|---5--5-5-5-5-5-5-5-|
|------------------------|--------------------|
|
|  <
|  H           +H           +W
|------------------------|--------------------|
|-18----------(18)-------|-(18)---------------|
|------------------------|--------------------|
|------------------------|--------------------|
|------------------------|--------------------|
|------------------------|--------------------|
|
|  <
|  Q    +H.                 +W
|------------------------|--------------------|
|------------------------|--------------------|
|-10---(10)--------------|-(10)---------------|
|------------------------|--------------------|
|------------------------|--------------------|
|------------------------|--------------------|


    E  E E E   E  E E E    E E   E  E   E  E   E  E
|-----------------------|---------------------------|
|-----------------------|---------------------------|
|-----------------------|---------------------------|
|---3--3-3-3---3--3-3-3-|--7-7---7--7---7--7---7--7-|
|
|              >           <                   >
|  +H         +H           H           +Q     +Q
|-----------------------|---------------------------|
|-(18)-------(18)-------|-17----------(17)---(17)---|
|-----------------------|---------------------------|
|-----------------------|---------------------------|
|-----------------------|---------------------------|
|-----------------------|---------------------------|
|
|                          <
|  +W                      Q    +H.
|-----------------------|---------------------------|
|-----------------------|---------------------------|
|-(10)------------------|-12---(12)-----------------|
|-----------------------|---------------------------|
|-----------------------|---------------------------|
|-----------------------|---------------------------|


   E  E  E  E E E   E  E     E  E   E  E E E E E
|------------------------|-----------------------|
|------------------------|-----------------------|
|--5--5--5--5-5-5---5--5-|---5--5---5--5-5-5-5-5-|
|------------------------|-----------------------|
|
|  H.              +Q       +W
|------------------------|-----------------------|
|-15--------------(15)---|-(15)------------------|
|------------------------|-----------------------|
|------------------------|-----------------------|
|------------------------|-----------------------|
|------------------------|-----------------------|
|
|  <                         <
|  Q    +H.                  Q     +H.
|------------------------|--10----(10)-----------|
|------------------------|-----------------------|
|--7----(7)--------------|-----------------------|
|------------------------|-----------------------|
|------------------------|-----------------------|
|------------------------|-----------------------|


    E  E  E  E E E E E   E E  E  E E E E E
|----------------------|-------------------|
|----------------------|-------------------|
|----------------------|-------------------|
|---3--3--3--3-3-3-3-3-|-7-7--7--7-7-7-7-7-|
|
|   >
|  +W                    W
|----------------------|-------------------|
|-(15)-----------------|-------------------|
|----------------------|-------------------|
|----------------------|-------------------|
|----------------------|-------------------|
|----------------------|-------------------|
|
|   <                    <
|   Q    +H.             Q   +H.
|---8----(8)-----------|-5---(5)-----------|
|----------------------|-------------------|
|----------------------|-------------------|
|----------------------|-------------------|
|----------------------|-------------------|
|----------------------|-------------------|


  E E  E  E E E E E    E E   E  E E E E E
|-------------------|---------------------|
|-------------------|---------------------|
|-5-5--5--5-5-5-5-5-|--5-5---5--5-5-5-5-5-|
|-------------------|---------------------|
|
| Gtr III
| <                    <
| Q   +H.              Q    +H.
|-------------------|-10---(10)-----------|
|-------------------|---------------------|
|-7---(7)-----------|---------------------|
|-------------------|---------------------|
|-------------------|---------------------|
|-------------------|---------------------|


  E E  E  E E E E E   E E  E  E E E E E
|-------------------|-------------------||
|-------------------|-------------------||
|-------------------|-------------------||
|-3-3--3--3-3-3-3-3-|-7-7--7--7-7-7-7-7-||
|
| <                   <
| Q   +H.             Q   +H.
|-8---(8)-----------|-5---(5)-----------||
|-------------------|-------------------||
|-------------------|-------------------||
|-------------------|-------------------||
|-------------------|-------------------||
|-------------------|-------------------||


 Outro
                                                        H.=H
  E   E E E E E E E    E  E  E   E E E E E   W          +W
|-------------------|----------------------|----------|--------|
|-------------------|----------------------|----------|--------|
|-------------------|----------------------|----------|--------|
|-7---7-7-7-7-7-7-7-|--7--7--7---7-7-7-7-7-|-0--------|-(0)----|
|
|                                            Gtr II
| \2_________________________\4_________________________________
| W                   +Q    +H.              W          +W
|-5-----------------|-(5)---(5)------------|----------|--------|
|-------------------|----------------------|----------|--------|
|-------------------|----------------------|----------|--------|
|-------------------|----------------------|----------|--------|
|-------------------|----------------------|-5--------|-(5)----|
|-------------------|----------------------|----------|--------|


                                >
  +H.      +Q     +W           +W
|---------------|------------|--------*|
|---------------|------------|--------*|
|---------------|------------|--------*|
|-(0)------(0)--|-(0)--------|-(0)----*|
|
|                               >
| +H.      +Q     +W           +W
|---------------|------------|--------*|
|---------------|------------|--------*|
|---------------|------------|--------*|
|---------------|------------|--------*|
|-(5)------(5)--|-(5)--------|-(5)----*|
|---------------|------------|--------*|


Duration Legend
---------------
W - whole; H - half; Q - quarter; E - 8th; S - 16th; T - 32nd; X - 64th; a - acciaccatura
+ - note tied to previous; . - note dotted; .. - note double dotted
Uncapitalized letters represent notes that are staccato (1/2 duration)
Irregular groupings are notated above the duration line
Duration letters will always appear directly above the note/fret number it represents the
duration for.  Duration letters with no fret number below them represent rests.  Multi-
bar rests are notated in the form Wxn, where n is the number of bars to rest for.  Low
melody durations appear below the staff

Tablature Legend
----------------
 h   - hammer-on
 p   - pull-off
 b   - bend
 pb  - pre-bend
 r   - bend release (if no number after the r, then release immediately)
 /\  - slide into or out of (from/to "nowhere")
 s   - legato slide
 S   - shift slide
  - natural harmonic
[n]  - artificial harmonic
n(n) - tapped harmonic
 ~   - vibrato
 tr  - trill
 T   - tap
 TP  - trem. picking
 PM  - palm muting
\n/  - tremolo bar dip; n = amount to dip
 \n  - tremolo bar down
 n/  - tremolo bar up
/n\  - tremolo bar inverted dip
 =   - hold bend; also acts as connecting device for hammers/pulls
 <>  - volume swell (louder/softer)
 x   - on rhythm slash represents muted slash
 o   - on rhythm slash represents single note slash

Misc Legend
-----------
 |  - bar
||  - double bar
||o - repeat start
o|| - repeat end
*|  - double bar (ending)
 :  - bar (freetime)
 $  - Segno
 &  - Coda
Tempo markers -  = BPM(8/16=s8/s16), where s8 = swing 8ths, s16 = swing 16ths





Comments


Popular 69 Eyes tabs & chords
Christina Death Bass Tabs
Still Waters Run Deep Bass Tabs
The Chair 1 Bass Tabs
Crashing High Tabs
Dead Girls Are Easy Tabs
Dead N' Gone Tabs
Devils 1 Tabs
Framed In Blood Tabs
Hevioso Tabs
Velvet Touch 1 Tabs


Song lyrics



↑ Back to top | Tablatures and chords are parodies/interpretations of the original songs. You may use it for private study, scholarship, research or language learning purposes only
© 2014 AZChords.com Contact us | Privacy policy | DMCA | Add/correct tabs | Request tabs | Top 50 tabs