>
 >
Feel Berlin

Feel Berlin Bass Tabs

69 Eyes - Feel Berlin chords, tabs, tablatures, lyrics

Guitar lessons | Add/correct | Request | Top 50 tabs Artists:  A B C D E F G H I J K L M N O P Q R S T U V W X Y Z 0-9

Feel Berlin Bass Tabs – 69 Eyes

CD, Sheet music, Poster

Do you like Feel Berlin? Share with your friends now
Bass TabsChordsTabs
#------------------------------------------------------------------------------##

                             FEEL BERLIN (Bassline)
                           As recorded by The 69 Eyes
                          (From the 2004 Album DEVILS)

Words by Jyrki69

Music by Bazie

Gtr I (Db Ab Db Gb) - 'Archzie'
Gtr II (Db Ab Db Gb Bb Eb) - 'Untitled'

 Intro
  Q=136
 4/4
  Gtr II
  Wx4
|--------|
|--------|
|--------|
|--------|
|--------|
|--------|


  Q  E E E E E E   +Q.    Q    E   E   E
|----------------|------------------------|
|-5--8---7-8-7---|-------(8)--(5)-(8)-(5)-|
|--------------7-|-(7)--------------------|
|----------------|------------------------|
|----------------|------------------------|
|----------------|------------------------|


   Q   E E E E E E   +H      E   E   E   E    Wx2
|------5---5-------|------------------------|--------||
|------------8-7-5-|-(5)----(3)-(5)-(3)-(5)-|--------||
|-(7)--------------|------------------------|--------||
|------------------|------------------------|--------||
|------------------|------------------------|--------||
|------------------|------------------------|--------||


 Chorus
  $
  Gtr I
  Q  Q   E E E E    E  E E E E E E E   Q  Q   E E E E    E  E E E E E E E
|----------------|-------------------|----------------|-------------------|
|----------------|-------------------|----------------|-------------------|
|----------------|-------------------|----------------|-------------------|
|-2--2---2-2-2-2s|==5--5-5-5-5-5-5-5-|-0--0---0-0-0-0-|-/7--7-7-7-7-7-7-7-|
|
| Gtr II
| Q  E E E E E E   +Q.     Q   E E E   Q  E E E E E E   +H        E E E E
|----------------|-------------------|----5---5-------|-------------------|
|-5--8---7-8-7---|---------8---5-8-5-|----------8-7-5-|-(5)-------3-5-3-5-|
|--------------7-|-(7)---------------|-7--------------|-------------------|
|----------------|-------------------|----------------|-------------------|
|----------------|-------------------|----------------|-------------------|
|----------------|-------------------|----------------|-------------------|


                                                                 To Coda
  Q  Q   E E E E    E  E E E E E E E   Q  Q   E E E E    E  E E E E E E E
|----------------|-------------------|----------------|-------------------||
|----------------|-------------------|----------------|-------------------||
|----------------|-------------------|----------------|-------------------||
|-2--2---2-2-2-2s|==5--5-5-5-5-5-5-5-|-0--0---0-0-0-0-|-/7--7-7-7-7-7-7-7-||
|
| Q  E E E E E E   +Q.     Q   E E E   Q  E E E E E E   +W
|----------------|-------------------|----------------|-------------------||
|-5--8---7-8-7---|---------8---5-8-5-|----7---8-7-8-5-|-(5)---------------||
|--------------7-|-(7)---------------|-7--------------|-------------------||
|----------------|-------------------|----------------|-------------------||
|----------------|-------------------|----------------|-------------------||
|----------------|-------------------|----------------|-------------------||


   Verse
    E E E E E E E E   E E E E E E E E   E E E E E E E E   E E E E E E E E
||------------------|-----------------|-----------------|-------------------||
||o-----------------|-----------------|-----------------|------------------o||
||o-----------------|-----------------|-----------------|------------------o||
||--0-2-2---2-0-0-0-|-2-2---2---0-0-0-|-0-2-2---2-0-0-0-|---5-5-5---0-0-0---||


  E E E E E E E E   E E E E E E E E   E E E E E E E E   E E E E E E E E
|-----------------|-----------------|-----------------|-----------------|
|-----------------|-----------------|-----------------|-----------------|
|-----------------|-----------------|-----------------|-----------------|
|-2-2-2-2-2-2-2-2-|-0-0-0-0-0-0-0-0-|-5-5-5-5-5-5-5-5-|-7-7-7-7-7-7-7-7-|


                                                D.S. al Coda
  E E E E E E E E   E E E E E E E E   E E E E E E E E   +W
|-----------------|-----------------|-----------------|---------||
|-----------------|-----------------|-----------------|---------||
|-----------------|-----------------|-----------------|---------||
|-2-2-2-2-2-2-2-2-|-0-0-0-0-0-0-0-0-|-5-5---5-5---5-7-|-(7)-----||


 Pre-Verse
  &
  E E E E E E E E   E E E E E E E E   E E E E E E E E   E E E E E E E E
|-----------------|-----------------|-----------------|-----------------||
|-----------------|-----------------|-----------------|-----------------||
|-----------------|-----------------|-----------------|-----------------||
|-0-2-2---2-0-0-0-|-2-2---2---0-0-0-|-0-2-2---2-0-0-2-|---2---2---0-0-0-||


   Verse
    E E E E E E E E   E E E E E E E E   E E E E E E E E   E E E E E E E E
||------------------|-----------------|-----------------|-------------------||
||o-----------------|-----------------|-----------------|------------------o||
||o-----------------|-----------------|-----------------|------------------o||
||--0-2-2---2-0-0-0-|-2-2---2---0-0-0-|-0-2-2---2-0-0-0-|---5-5-5---0-0-0---||


  E E E E E E E E    E  E E E E E E E    E  E E E E E E E    E  E E E E E E E
|-----------------|-------------------|-------------------|-------------------|
|-----------------|-------------------|-------------------|-------------------|
|-----------------|-------------------|-------------------|-------------------|
|-2-2-2-2-2-2-2-2-|--0--0-0-0-0-0-0-0-|--5--5-5-5-5-5-5-5-|--7--7-7-7-7-7-7-7-|
|
| Gtr II
| E E E E E E E E   +E  E E E E E E E   +E  E E E E E E E   +E  E E E E E E E
|-----3---3---5---|-------3---3---5---|-------3---3---5---|-------3---3---5---|
|---5---5---5---5-|-(5)-5---5---5---5-|-(5)-5---5---5---5-|-(5)-5---5---5---5-|
|-----------------|-------------------|-------------------|-------------------|
|-----------------|-------------------|-------------------|-------------------|
|-----------------|-------------------|-------------------|-------------------|
|-----------------|-------------------|-------------------|-------------------|


   E  E E E E E E E    E  E E E E E E E    E  E E E E E E E   +W
|-------------------|-------------------|-------------------|--------||
|-------------------|-------------------|-------------------|--------||
|-------------------|-------------------|-------------------|--------||
|--2--2-2-2-2-2-2-2-|--0--0-0-0-0-0-0-0-|--5--5---5-5---5-7-|-(7)----||
|
| +E  E E E E E E E   +E  E E E E E E E   +E  E E E E E E E   +W
|-------3---3---5---|-------3---3---5---|-------3---3---5---|--------||
|-(5)-5---5---5---5-|-(5)-5---5---5---5-|-(5)-5---5---5---5-|-(5)----||
|-------------------|-------------------|-------------------|--------||
|-------------------|-------------------|-------------------|--------||
|-------------------|-------------------|-------------------|--------||
|-------------------|-------------------|-------------------|--------||


   Chorus
    $$                                                   To Dbl. Coda
    Q  Q  E E E E   E E E E E E E E   Q  Q  E E E E    E E E E E E E E   4x
||----------------|-----------------|---------------|--------------------||
||o---------------|-----------------|---------------|-------------------o||
||o---------------|-----------------|---------------|-------------------o||
||--2--2--2-2-2-2s|=5-5-5-5-5-5-5-5-|-0--0--0-0-0-0-|-/7-7-7-7-7-7-7-7---||


   Guitar Solo
    E E E E E E E E   E E E E E E E E   E E E E E E E E   E E E E E E E E
||------------------|-----------------|-----------------|-------------------||
||o-----------------|-----------------|-----------------|------------------o||
||o-----------------|-----------------|-----------------|------------------o||
||--0-2-2---2-0-0-0-|-2-2---2---0-0-0-|-0-2-2---2-0-0-0-|---5-5-5---0-0-0---||


  E E E E E E E E    E  E E E E E E E    E  E E E E E E E    E  E E E E E E E
|-----------------|-------------------|-------------------|-------------------|
|-----------------|-------------------|-------------------|-------------------|
|-----------------|-------------------|-------------------|-------------------|
|-2-2-2-2-2-2-2-2-|--0--0-0-0-0-0-0-0-|--5--5-5-5-5-5-5-5-|--7--7-7-7-7-7-7-7-|
|
| Gtr II
| E E E E E E E E   +E  E E E E E E E   +E  E E E E E E E   +E  E E E E E E E
|-----3---3---5---|-------3---3---5---|-------3---3---5---|-------3---3---5---|
|---5---5---5---5-|-(5)-5---5---5---5-|-(5)-5---5---5---5-|-(5)-5---5---5---5-|
|-----------------|-------------------|-------------------|-------------------|
|-----------------|-------------------|-------------------|-------------------|
|-----------------|-------------------|-------------------|-------------------|
|-----------------|-------------------|-------------------|-------------------|


   E  E E E E E E E    E  E E E E E E E    E  E E E E E E E   +W
|-------------------|-------------------|-------------------|--------||
|-------------------|-------------------|-------------------|--------||
|-------------------|-------------------|-------------------|--------||
|--2--2-2-2-2-2-2-2-|--0--0-0-0-0-0-0-0-|--5--5---5-5---5-7-|-(7)----||
|
| +E  E E E E E E E   +E  E E E E E E E   +E  E E E E E E E   +W
|-------3---3---5---|-------3---3---5---|-------3---3---5---|--------||
|-(5)-5---5---5---5-|-(5)-5---5---5---5-|-(5)-5---5---5---5-|-(5)----||
|-------------------|-------------------|-------------------|--------||
|-------------------|-------------------|-------------------|--------||
|-------------------|-------------------|-------------------|--------||
|-------------------|-------------------|-------------------|--------||


 Interlude
  Gtr II
  E E E E E E E E   +Q.    Q    E   E  E
|-----------------|----------------------|
|-5-------7-8-7---|-------(8)--(5)-(8)-5-|
|-----4---------7-|-(7)------------------|
|-----------------|----------------------|
|-----------------|----------------------|
|-----------------|----------------------|


  Q  E E E E E E   +Q    E   Q    E   E   E
|----5---5-------|-----------------------(3)-|
|----------8-7-5-|-(5)------(5)--(3)-(5)-----|
|-7--------------|------(4)------------------|
|----------------|---------------------------|
|----------------|---------------------------|
|----------------|---------------------------|


  Q  E E E E E E   +Q.   Q   E  E E
|----7-----------|------------------|
|-5------7-8-7---|-------8--(5)-8-5-|
|--------------7-|-(7)--------------|
|----------------|------------------|
|----------------|------------------|
|----------------|------------------|


   Q    Q   +E   E  E  E    +Q.    Q   E  E  E
|------15--(15)-14-------|---------------------|
|------------------15-13-|-(13)---12--13-12----|
|-(7)--------------------|------------------12-|
|------------------------|---------------------|
|------------------------|---------------------|
|------------------------|---------------------|


  Gtr I
  W          W          W          W
|----------|----------|----------|------|
|----------|----------|----------|------|
|----------|----------|----------|------|
|-2--------|-5--------|-0--------|-7----|


                               D.S.S. al Dbl. Coda
  W          W          W          W          +W
|----------|----------|----------|----------|---------||
|----------|----------|----------|----------|---------||
|----------|----------|----------|----------|---------||
|-2--------|-5--------|-0--------|-7--------|-(7)-----||


 Outro
  &&
  Wx8
|--------*|
|--------*|
|--------*|
|--------*|


Duration Legend
---------------
W - whole; H - half; Q - quarter; E - 8th; S - 16th; T - 32nd; X - 64th; a - acciaccatura
+ - note tied to previous; . - note dotted; .. - note double dotted
Uncapitalized letters represent notes that are staccato (1/2 duration)
Irregular groupings are notated above the duration line
Duration letters will always appear directly above the note/fret number it represents the
duration for.  Duration letters with no fret number below them represent rests.  Multi-
bar rests are notated in the form Wxn, where n is the number of bars to rest for.  Low
melody durations appear below the staff

Tablature Legend
----------------
 h   - hammer-on
 p   - pull-off
 b   - bend
 pb  - pre-bend
 r   - bend release (if no number after the r, then release immediately)
 /\  - slide into or out of (from/to "nowhere")
 s   - legato slide
 S   - shift slide
  - natural harmonic
[n]  - artificial harmonic
n(n) - tapped harmonic
 ~   - vibrato
 tr  - trill
 T   - tap
 TP  - trem. picking
 PM  - palm muting
\n/  - tremolo bar dip; n = amount to dip
 \n  - tremolo bar down
 n/  - tremolo bar up
/n\  - tremolo bar inverted dip
 =   - hold bend; also acts as connecting device for hammers/pulls
 <>  - volume swell (louder/softer)
 x   - on rhythm slash represents muted slash
 o   - on rhythm slash represents single note slash

Misc Legend
-----------
 |  - bar
||  - double bar
||o - repeat start
o|| - repeat end
*|  - double bar (ending)
 :  - bar (freetime)
 $  - Segno
 &  - Coda
Tempo markers -  = BPM(8/16=s8/s16), where s8 = swing 8ths, s16 = swing 16ths





Comments


Popular 69 Eyes tabs & chords
Beneath The Blue Bass Tabs
Christina Death Bass Tabs
Framed In Blood Bass Tabs
Stolen Season Bass Tabs
Stolen Season 2 Bass Tabs
Wasting The Dawn 2 Bass Tabs
Feel Berlin Chords
Velvet Touch Tabs
Wasting The Dawn (Intro) Tabs
Wasting The Dawn 1 Tabs


Song lyrics



↑ Back to top | Tablatures and chords are parodies/interpretations of the original songs. You may use it for private study, scholarship, research or language learning purposes only
© 2014 AZChords.com Contact us | Privacy policy | DMCA | Add/correct tabs | Request tabs | Top 50 tabs