» » »

69 Eyes, Feel Berlin Tabs (ver.1)

Artists:  A B C D E F G H I J K L M N O P Q R S T U V W X Y Z # 

Feel Berlin Tabs (ver.1)

69 Eyes Tabs
 Rating:
4.2/5 (5 votes)
Feel Berlin lessons Tabs too difficult? Try these video lessons and learn fast
                -------------------------------------------------------------------------------
-------------------------------------------------------------------------------

Tuning: Drop Db ( Db Ab Db Gb Bb Eb)


    
    Intro (Acoustic w/ Reverb by Bazie)

       Ebm           Dbm             Bm
eb|---------------------------------------------------|
Bb|------7---------5--------5-------------------------|
Gb|----9--9-9----7--7-7---7--7-7-----5-4h5-4----------|
Db|---9-9--9------7--7-----7--7-----5-5---------------|
Ab|--7----------5--------5---------3------------------|
Db|---------------------------------------------------|

eb|------------------------------------------|
Bb|------7---------5--------5----------------
Gb|----9--9-9----7--7-7---7--7-7-----5-4h5-4-|
Db|---9-9--9------7--7-----7--7-----5-5------|
Ab|--7----------5--------5---------3---------|
Db|------------------------------------------|

eb|----------------------|
Bb|----------------------|
Gb|-0-5-4h5-4--0-5-4h5-4-|
Db|----------------------
Ab|----------------------|
Db|----------------------|




    Main Riff (Heavy Distortion by Timo-Timo)  Intro plays w/ Main Riff


eb|----------------------|
Bb|----------------------|
Gb|----------------------| (2x)
Db|--2----5----0----7----|
Ab|--2----5----0----7----|
Db|--2----5----0----7----|




    Verse (Heavy Distortion by Bazie and Timo-Timo)


eb|----------------------------------------------------------------|
Bb|----------------------------------------------------------------|
Gb|----------------------------------------------------------------|  (2x)
Db|--2--2--2-0-0-0--2--2--2-0-0-0-0h2-2--2--2-0-0-0---5-5-5--0-0-0-|
Ab|--2--2--2-0-0-0--2--2--2-0-0-0-0h2-2--2--2-0-0-0---5-5-5--0-0-0-|
Db|--2--2--2-0-0-0--2--2--2-0-0-0-0h2-2--2--2-0-0-0---5-5-5--0-0-0-|




    Pre-Chorus (By Bazie and Timo-Timo)



pm - - - - - - - - - - - - - - - - - - - - - - - - - - - - - - - - - -

eb|----------------------------------------------------------------------|
Bb|----------------------------------------------------------------------|
Gb|----------------------------------------------------------------------|
Db|-2-2-2-2-2-2-2-2--0-0-0-0-0-0-0-0--5-5-5-5-5-5-5-5--7-7-7-7-7-7-7-7---|
Ab|-2-2-2-2-2-2-2-2--0-0-0-0-0-0-0-0--5-5-5-5-5-5-5-5--7-7-7-7-7-7-7-7---|
Db|-2-2-2-2-2-2-2-2--0-0-0-0-0-0-0-0--5-5-5-5-5-5-5-5--7-7-7-7-7-7-7-7---|

pm - - - - - - - - - - - - - - - - - 

eb|------------------------------------------------------|
Bb|------------------------------------------------------|
Gb|------------------------------------------------------|
Db|-2-2-2-2-2-2-2-2--0-0-0-0-0-0-0-0---5-5--5-5--5-7-----|
Ab|-2-2-2-2-2-2-2-2--0-0-0-0-0-0-0-0---5-5--5-5--5-7-----|
Db|-2-2-2-2-2-2-2-2--0-0-0-0-0-0-0-0---5-5--5-5--5-7-----|



  

   Chorus 1 (Same as the Main Riff w/ Intro together) 






   


   Solo 1 (w/ Wah-Wah by Bazie) /  Verse Riff (Timo-Timo)








   Verse 2 (Bazie and Timo-Timo)








   Pre-Chorus 2 (Bazie and Timo-Timo)








   Chorus 2 (Same as Main Riff and Intro together)








   Solo 2 (w/ Wah-Wah by Bazie) / Verse Riff (Timo-Timo)








   Pre-Chorus 3 (Bazie and Timo-Timo) 







   
   Chorus 3 ( Only the vocals on the first time around)



   

   That's it!!! Sorry I did not do the solo's but I can tell you
 
   that the notes are around 5 and 7 on the Ab, Db, and Gb strings.
 
   Go ahead and play around with those solo's and tab them so this 

   lost boy can shred...


| pm - palm mute
| h - hammer-on


===============================================================================
            
Submit corrections

comments powered by Disqus
↑ Back to top | 69 Eyes Tabs for Feel Berlin. Lyrics for acoustic guitar and electric guitar. Tablatures and chords are parodies/interpretations of the original songs. You may use it for private study, scholarship, research or language learning purposes only