>
 >
Christina Death

Christina Death Guitar Tabs

69 Eyes - Christina Death chords, tabs, tablatures, lyrics

Guitar lessons | Add/correct | Request | Top 50 tabs Artists:  A B C D E F G H I J K L M N O P Q R S T U V W X Y Z 0-9

Christina Death Guitar Tabs – 69 Eyes

CD, Sheet music, Poster

Do you like Christina Death? Share with your friends now
Bass TabsTabs
#------------------------------------------------------------------------------##

                                 CHRISTINA DEATH
                           As recorded by The 69 Eyes
                          (From the 2004 Album DEVILS)

Words by Jyrki

Music by Bazie

Gtr I (Db Ab Db Gb Bb Eb) - 'Keyb'
Gtr II (Db Ab Db Gb Bb Eb) - 'Muted'
Gtr III (Db Ab Db Gb Bb Eb) - 'Acoustic'
Gtr IV (Db Ab Db Gb Bb Eb) - 'Dist'
Gtr V (Db Ab Db Gb Bb Eb) - 'Dist II'

 Intro
  Q=134
  N.C.
 4/4
  Gtr I
  E E E E  Q  E E   E E E E  Q  Q    +E  E E E  Q  E E   E E  E E  Q  Q
|-----------------|----------------|-------------------|------------------|
|-----------------|----------------|-------------------|------------------|
|-----9---10--9---|-7---9---10--9--|-(9)---9---10--9---|-7--------10--9---|
|---7---7-------7-|---7---7--------|-----7---7-------7-|---7-14-7---------|
|-----------------|----------------|-------------------|------------------|
|-----------------|----------------|-------------------|------------------|


  +E  E E E  Q  E E    E  E E E  Q  Q    +E  E E E  Q  E E   E E E E  Q  Q
|-------------------|------------------|-------------------|----------------|
|-------------------|------------------|-------------------|----------------|
|-(9)---9---10--9---|--7----9---10--9--|-(9)---9---10--9---|-7---9---10--9--|
|-----7---7-------7-|-----7---7--------|-----7---7-------7-|---7---7--------|
|-------------------|------------------|-------------------|----------------|
|-------------------|------------------|-------------------|----------------|
|
| Gtr II
|  ~~~~~~~~~~~~~~~~~~~~~~~~~~~~~~~~~~~~~~~~~~~~~~~~~~~~~~~~~~~~
|  W                  +W                  W                  W
|-------------------|------------------|-------------------|----------------|
|-------------------|------------------|-------------------|----------------|
|--9----------------|-(9)--------------|--5----------------|-7--------------|
|-------------------|------------------|-------------------|----------------|
|-------------------|------------------|-------------------|----------------|
|-------------------|------------------|-------------------|----------------|


  +E  E  E  E  Q  E E    E  E E E  Q  Q
|---------------------|------------------|
|---------------------|------------------|
|-(9)----9----10--9---|--7----9---10--9--|
|-----7-----7-------7-|-----7---7--------|
|---------------------|------------------|
|---------------------|------------------|
|
|  ~~~~~~~~~~~~~~~~~~~~~~~~~~~~~~~~~~~~~~~
|  W                    +W
|---------------------|------------------|
|---------------------|------------------|
|--9------------------|-(9)--------------|
|---------------------|------------------|
|---------------------|------------------|
|---------------------|------------------|
|
| Gtr III
|  E  E +H        E E   +W
|---------------------|------------------|
|---------------------|------------------|
|-----9-(9)---------7-|-(7)--------------|
|--7--------------7---|------------------|
|---------------------|------------------|
|---------------------|------------------|


  +E   E  E  E  Q  E E    E  E E E  Q  Q
|----------------------|------------------|
|----------------------|------------------|
|-(9)-----9----10--9---|--7----9---10--9--|
|------7-----7-------7-|-----7---7--------|
|----------------------|------------------|
|----------------------|------------------|
|
|~~~~~~                   ~~~
|  H..               E   +W
|----------------------|------------------|
|----------------------|------------------|
|--5-----------------7-|-(7)--------------|
|----------------------|------------------|
|----------------------|------------------|
|----------------------|------------------|
|
|  E   E +H        E E   +H         H
|----------------------|------------------|
|----------------------|------------------|
|------5-(5)---------7-|-(7)--------9-----|
|--7---------------7---|------------------|
|----------------------|------------------|
|----------------------|------------------|


  +E  E  E  E  Q  E E    E  E E E  Q  Q
|---------------------|------------------|
|---------------------|------------------|
|-(9)----9----10--9---|--7----9---10--9--|
|-----7-----7-------7-|-----7---7--------|
|---------------------|------------------|
|---------------------|------------------|
|
|  ~~~~~~~~~~~~~~~~~~~~~~~~~~~~~~~~~~~~~~~
|  W                    +W
|---------------------|------------------|
|---------------------|------------------|
|--9------------------|-(9)--------------|
|---------------------|------------------|
|---------------------|------------------|
|---------------------|------------------|
|
|  E  E +H        E E   +W
|---------------------|------------------|
|---------------------|------------------|
|-----9-(9)---------7-|-(7)--------------|
|--7--------------7---|------------------|
|---------------------|------------------|
|---------------------|------------------|


  +E  E  E  E  Q  E E    E  E E E  Q  Q
|---------------------|------------------||
|---------------------|------------------||
|-(9)----9----10--9---|--7----9---10--9--||
|-----7-----7-------7-|-----7---7--------||
|---------------------|------------------||
|---------------------|------------------||
|
|~~~~~~~~~~~~~~~~~~~~~~~~~~~
|  W                    +W
|---------------------|------------------||
|---------------------|------------------||
|--5------------------|-(5)--------------||
|---------------------|------------------||
|---------------------|------------------||
|---------------------|------------------||
|
|  E  E +H.             +W
|---------------------|------------------||
|---------------------|------------------||
|-----5-(5)-----------|-(5)--------------||
|--7------------------|------------------||
|---------------------|------------------||
|---------------------|------------------||


 Chorus
  A5               G5                    F5               D5          E5
  Gtr IV
  H..              E   +W                H..              E   +H       H
|--------------------|-----------------|--------------------|----------------|
|--------------------|-----------------|--------------------|----------------|
|--------------------|-----------------|--------------------|----------------|
|-7----------------5-|-(5)-------------|-3----------------0-|-(0)------2-----|
|-7----------------5-|-(5)-------------|-3----------------0-|-(0)------2-----|
|-7----------------5-|-(5)-------------|-3----------------0-|-(0)------2-----|
|
| Gtr III
| E   Q   E Q.     E   +E  E H.          E   Q   E Q    E E   +Q   Q  +H
|--------------------|-----------------|--------------------|----------------|
|--------------------|-----------------|--------------------|------5--(5)----|
|-----5-----5------4-|-(4)---4---------|-----5-----5------7-|-(7)------------|
|-7-------7----------|-----5-----------|-7-------7------7---|----------------|
|--------------------|-----------------|--------------------|----------------|
|--------------------|-----------------|--------------------|----------------|
|
| Gtr I
| Q     E Q     Q  E   +H.         E E   Q     E Q    Q   E   +H       H
|--------------------|-----------------|--------------------|----------------|
|--------------------|-----------------|--------------------|----------------|
|-------9-7----------|-----------------|-------9-7----------|----------------|
|-7------------10--9-|-(9)---------7-5-|-7-----------10---7-|-(7)------9-----|
|--------------------|-----------------|--------------------|----------------|
|--------------------|-----------------|--------------------|----------------|


  A5               G5                    F5               G5
  H..              E   +W                H..              E   +W
|--------------------|-----------------|--------------------|--------||
|--------------------|-----------------|--------------------|--------||
|--------------------|-----------------|--------------------|--------||
|-7----------------5-|-(5)-------------|-3----------------5-|-(5)----||
|-7----------------5-|-(5)-------------|-3----------------5-|-(5)----||
|-7----------------5-|-(5)-------------|-3----------------5-|-(5)----||
|
| E   Q   E Q.     E   +E  E H.          E   Q   E Q    E E   +W
|--------------------|-----------------|--------------------|--------||
|--------------------|-----------------|--------------------|--------||
|-----5-----5------4-|-(4)---4---------|-----5-----5------7-|-(7)----||
|-7-------7----------|-----5-----------|-7-------7------7---|--------||
|--------------------|-----------------|--------------------|--------||
|--------------------|-----------------|--------------------|--------||
|
| Q     E Q     Q  E   +H.         E E   Q     E Q    Q   E   +W
|--------------------|-----------------|--------------------|--------||
|--------------------|-----------------|--------------------|--------||
|-------9-7----------|-----------------|-------9-7--------7-|-(7)----||
|-7------------10--9-|-(9)---------7-5-|-7-----------10-----|--------||
|--------------------|-----------------|--------------------|--------||
|--------------------|-----------------|--------------------|--------||


   Verse
    N.C.
    E E E E q  E E   E E q  E E E E   E E E E q  E E   E E q  E E E E   3x
||-----------------|----------------|----------------|------------------||
||o----------------|----------------|----------------|-----------------o||
||----------7----5-|----------------|---------7----5-|------------------||
||--5h7-x-x----x---|---x-5--5h7-x-x-|-5h7-x-x----x---|---x-5--5h7-x-x---||
||o----------------|----------------|----------------|-----------------o||
||-----------------|----------------|----------------|------------------||


                                    G5
  E E E E q  E E   E E q  E E E E   W                 +W
|----------------|----------------|-----------------|--------||
|----------------|----------------|-----------------|--------||
|---------7----5-|----------------|-----------------|--------||
|-5h7-x-x----x---|---x-5--5h7-x-x-|-5---------------|-(5)----||
|----------------|----------------|-5---------------|-(5)----||
|----------------|----------------|-5---------------|-(5)----||
|
|                                   Gtr III
| W                W                E Q.   +Q   E E   +W
|----------------|----------------|-----------------|--------||
|----------------|----------------|-----------------|--------||
|----------------|----------------|---7----(7)----7-|-(7)----||
|----------------|----------------|-5-----------5---|--------||
|----------------|----------------|-----------------|--------||
|----------------|----------------|-----------------|--------||


 Chorus
  A5                   G5
  H..                   E   +W
|-------------------------|-----------------------|
|-------------------------|-----------------------|
|-------------------------|-----------------------|
|-7---------------------5-|-(5)-------------------|
|-7---------------------5-|-(5)-------------------|
|-7---------------------5-|-(5)-------------------|
|
| Gtr III
| E    Q     E  Q.      E   +E   E  H.
|-------------------------|-----------------------|
|-------------------------|-----------------------|
|------5--------5-------4-|-(4)-----4-------------|
|-7----------7------------|------5----------------|
|-------------------------|-----------------------|
|-------------------------|-----------------------|
|
| Gtr I
| E    E  E  E  Q    E  E    E   E  E   E  Q   Q
|--------12----13---12----|-10-----12-----13--12--|
|-----10----10---------10-|-----10-----10---------|
|-------------------------|-----------------------|
|-------------------------|-----------------------|
|-------------------------|-----------------------|
|-------------------------|-----------------------|


  F5                    D5                E5
    H..                  E   +H            H
|--------------------------|-----------------------|
|--------------------------|-----------------------|
|--------------------------|-----------------------|
|---3--------------------0-|-(0)-----------2-------|
|---3--------------------0-|-(0)-----------2-------|
|---3--------------------0-|-(0)-----------2-------|
|
|   E    Q     E  Q   E  E   +Q      Q    +H
|--------------------------|-----------------------|
|--------------------------|---------5----(5)------|
|--------5--------5------7-|-(7)-------------------|
|---7----------7------7----|-----------------------|
|--------------------------|-----------------------|
|--------------------------|-----------------------|
|
|  +E    E  E  E  Q   E  E    E   E  E  E  Q    Q
|-(12)-----12----13--12----|-10-----12----13---12--|
|-------10----10--------10-|-----10----10----------|
|--------------------------|-----------------------|
|--------------------------|-----------------------|
|--------------------------|-----------------------|
|--------------------------|-----------------------|


  A5                     G5
    H..                   E   +W
|---------------------------|-----------------------|
|---------------------------|-----------------------|
|---------------------------|-----------------------|
|---7---------------------5-|-(5)-------------------|
|---7---------------------5-|-(5)-------------------|
|---7---------------------5-|-(5)-------------------|
|
|   E    Q     E  Q.      E   +E   E  H.
|---------------------------|-----------------------|
|---------------------------|-----------------------|
|--------5--------5-------4-|-(4)-----4-------------|
|---7----------7------------|------5----------------|
|---------------------------|-----------------------|
|---------------------------|-----------------------|
|
|  +E    E  E  E  Q    E  E    E   E  E   E  Q   Q
|-(12)-----12----13---12----|-10-----12-----13--12--|
|-------10----10---------10-|-----10-----10---------|
|---------------------------|-----------------------|
|---------------------------|-----------------------|
|---------------------------|-----------------------|
|---------------------------|-----------------------|


  F5                    G5
    H..                  E   +W
|--------------------------|----------------------||
|--------------------------|----------------------||
|--------------------------|----------------------||
|---3--------------------5-|-(5)------------------||
|---3--------------------5-|-(5)------------------||
|---3--------------------5-|-(5)------------------||
|
|   E    Q     E  Q   E  E   +W
|--------------------------|----------------------||
|--------------------------|----------------------||
|--------5--------5------7-|-(7)------------------||
|---7----------7------7----|----------------------||
|--------------------------|----------------------||
|--------------------------|----------------------||
|
|  +E    E  E  E  Q   E  E    E   E  E  E  Q   Q
|-(12)-----12----13--12----|-10-----12----13--12--||
|-------10----10--------10-|-----10----10---------||
|--------------------------|----------------------||
|--------------------------|----------------------||
|--------------------------|----------------------||
|--------------------------|----------------------||


   Verse
    N.C.
    E E E E q  E E   E E q  E E E E   E E E E q  E E   E E q  E E E E
||-----------------|----------------|----------------|------------------||
||o----------------|----------------|----------------|-----------------o||
||----------7----5-|----------------|---------7----5-|------------------||
||--5h7-x-x----x---|---x-5--5h7-x-x-|-5h7-x-x----x---|---x-5--5h7-x-x---||
||o----------------|----------------|----------------|-----------------o||
||-----------------|----------------|----------------|------------------||


  E  E  E  E  q     E  E     E   E  q     E  E  E  E
|------------------------|---------------------------|
|------------------------|---------------------------|
|-------------7--------5-|---------------------------|
|-5h=7--x--x--------x----|-------x--5-----5h=7--x--x-|
|------------------------|---------------------------|
|------------------------|---------------------------|
|
| Gtr I
| E  E  E  E  E  E  E  E    +E   E  E  E  E  E  E  E
|------17----15----13-12-|-(12)----13----12-10-------|
|---10----10----10-------|------10----10-------13-10-|
|------------------------|---------------------------|
|------------------------|---------------------------|
|------------------------|---------------------------|
|------------------------|---------------------------|


    E   E  E  E  q     E  E     E   E q     E  E  E E
|---------------------------|-------------------------|
|---------------------------|-------------------------|
|----------------7--------5-|-------------------------|
|---5h==7--x--x--------x----|-------x-5-----5h=7--x-x-|
|---------------------------|-------------------------|
|---------------------------|-------------------------|
|
|  +E   E  E  E  E  E  E  E    +E   E E  E  E  E  Q
|---------12----10----------|-------------------------|
|-(10)-10----10----10-13-10-|-(10)---------12-13-12---|
|---------------------------|------12---12------------|
|---------------------------|-------------------------|
|---------------------------|-------------------------|
|---------------------------|-------------------------|


  E  E  E  E  q     E  E     E   E  q     E  E  E  E
|------------------------|---------------------------|
|------------------------|---------------------------|
|-------------7--------5-|---------------------------|
|-5h=7--x--x--------x----|-------x--5-----5h=7--x--x-|
|------------------------|---------------------------|
|------------------------|---------------------------|
|
| E  E  E  E  E  E  E  E    +E   E  E  E  E  E  E  E
|------17----15----13-12-|-(12)----13----12-10-------|
|---10----10----10-------|------10----10-------13-10-|
|------------------------|---------------------------|
|------------------------|---------------------------|
|------------------------|---------------------------|
|------------------------|---------------------------|


  G5
  W                 +W
|-----------------|--------||
|-----------------|--------||
|-----------------|--------||
|-5---------------|-(5)----||
|-5---------------|-(5)----||
|-5---------------|-(5)----||
|
| Gtr III
| E Q.   +Q   E E   +W
|-----------------|--------||
|-----------------|--------||
|---7----(7)----7-|-(7)----||
|-5-----------5---|--------||
|-----------------|--------||
|-----------------|--------||


   Chorus
    A5               G5                    F5               D5          E5
    H..              E   +W                H..              E   +H       H
||---------------------|-----------------|--------------------|----------------|
||o--------------------|-----------------|--------------------|----------------|
||---------------------|-----------------|--------------------|----------------|
||--7----------------5-|-(5)-------------|-3----------------0-|-(0)------2-----|
||o-7----------------5-|-(5)-------------|-3----------------0-|-(0)------2-----|
||--7----------------5-|-(5)-------------|-3----------------0-|-(0)------2-----|
|
|   Gtr III
|   E   Q   E Q.     E   +E  E H.          E   Q   E Q    E E   +Q   Q  +H
||---------------------|-----------------|--------------------|----------------|
||o--------------------|-----------------|--------------------|------5--(5)----|
||------5-----5------4-|-(4)---4---------|-----5-----5------7-|-(7)------------|
||--7-------7----------|-----5-----------|-7-------7------7---|----------------|
||o--------------------|-----------------|--------------------|----------------|
||---------------------|-----------------|--------------------|----------------|
|
|   Gtr I
|   Q     E Q     Q  E   +H.         E E   Q     E Q    Q   E   +H       H
||---------------------|-----------------|--------------------|----------------|
||o--------------------|-----------------|--------------------|----------------|
||--------9-7----------|-----------------|-------9-7----------|----------------|
||--7------------10--9-|-(9)---------7-5-|-7-----------10---7-|-(7)------9-----|
||o--------------------|-----------------|--------------------|----------------|
||---------------------|-----------------|--------------------|----------------|


  1.
  A5               G5                    F5               G5
  H..              E   +W                H..              E   +W
|--------------------|-----------------|--------------------|---------||
|--------------------|-----------------|--------------------|--------o||
|--------------------|-----------------|--------------------|---------||
|-7----------------5-|-(5)-------------|-3----------------5-|-(5)-----||
|-7----------------5-|-(5)-------------|-3----------------5-|-(5)----o||
|-7----------------5-|-(5)-------------|-3----------------5-|-(5)-----||
|
| E   Q   E Q.     E   +E  E H.          E   Q   E Q    E E   +W
|--------------------|-----------------|--------------------|---------||
|--------------------|-----------------|--------------------|--------o||
|-----5-----5------4-|-(4)---4---------|-----5-----5------7-|-(7)-----||
|-7-------7----------|-----5-----------|-7-------7------7---|---------||
|--------------------|-----------------|--------------------|--------o||
|--------------------|-----------------|--------------------|---------||
|
| Q     E Q     Q  E   +H.         E E   Q     E Q    Q   E   +W
|--------------------|-----------------|--------------------|---------||
|--------------------|-----------------|--------------------|--------o||
|-------9-7----------|-----------------|-------9-7--------7-|-(7)-----||
|-7------------10--9-|-(9)---------7-5-|-7-----------10-----|---------||
|--------------------|-----------------|--------------------|--------o||
|--------------------|-----------------|--------------------|---------||


  2.
  A5               G5                    F5
  H..              E   +W                W          +W
|--------------------|-----------------|----------|--------||
|--------------------|-----------------|----------|--------||
|--------------------|-----------------|----------|--------||
|-7----------------5-|-(5)-------------|-3--------|-(3)----||
|-7----------------5-|-(5)-------------|-3--------|-(3)----||
|-7----------------5-|-(5)-------------|-3--------|-(3)----||
|
| E   Q   E Q.     E   +E  E H.          W          +W
|--------------------|-----------------|----------|--------||
|--------------------|-----------------|----------|--------||
|-----5-----5------4-|-(4)---4---------|----------|--------||
|-7-------7----------|-----5-----------|-7--------|-(7)----||
|--------------------|-----------------|----------|--------||
|--------------------|-----------------|----------|--------||
|
| Q     E Q     Q  E   +H.         E E   W          +W
|--------------------|-----------------|----------|--------||
|--------------------|-----------------|----------|--------||
|-------9-7----------|-----------------|----------|--------||
|-7------------10--9-|-(9)---------7-5-|-7--------|-(7)----||
|--------------------|-----------------|----------|--------||
|--------------------|-----------------|----------|--------||


 Guitar Solo
  G5                     A5
  Gtr IV
             PM|       PM        PM         PM|
   Q         E E   Q   E E    E  E E E  E E E E
|--------------------------|--------------------|
|--------------------------|--------------------|
|--------------------------|--------------------|
|--------------------------|--------------------|
|--5---------------5-----7-|-------7----7-7-----|
|--5---------5-5---5---5-7-|-----7-7----7-7-7-7-|
|
| Gtr V
|  E     +Q.      +Q.    E   +H         H
|--------------------------|--------------------|
|-10b12r(10)-----(10)------|--------------------|
|--------------------------|--------------------|
|------------------------7-|-(7)-------10-------|
|--------------------------|--------------------|
|--------------------------|--------------------|


  D5              C5
      PM|    PM               PM        PM|
  Q   E E Q  E    E        E  E E E E E E E
|-----------------------|--------------------|
|-----------------------|--------------------|
|-----------------------|--------------------|
|-7-------7-------5-----|-------5---5-5------|
|-5---5-5-5--5----3-----|-----3-3---3-3-3-3--|
|-----------------------|--------------------|
|
| H.         E.     +S    +W
|-----------------------|--------------------|
|-----------------------|--------------------|
|-7----------9b10r==(9)-|-(9)----------------|
|-----------------------|--------------------|
|-----------------------|--------------------|
|-----------------------|--------------------|


  G5                             A5
         PM--|           PM             PM                           PM------|
   Q     E   E Q         E       E   E  E      E     E E      E      E       E
|----------------------------------|-------------------------------------------|
|----------------------------------|-------------------------------------------|
|----------------------------------|-------------------------------------------|
|----------------------------------|-------------------------------------------|
|--5-----------5-----------------7-|-----------7-------7------7----------------|
|--5-----5---5-5---------5-------7-|----7------7-------7------7------7-------7-|
|
|      |----3-----|                         |------3-------|
|  E.  Q   Q      Q  +E     +E.      E.     Q     Q        Q     +E     +E.
|----------------------------------|-------------------------------------------|
|-/8-------------------------------|-------------------------------------------|
|-----10---9-----10-(10)---(10)\---|-7-----------------------------------------|
|----------------------------------|------[10]---[7]-----[10]---(10)---(10)\---|
|----------------------------------|-------------------------------------------|
|----------------------------------|-------------------------------------------|


  D5                          C5
                PM|        PM            PM           PM|
    Q           E   E  Q   E   E     E   E   E  E E E E E
|---------------------------------|------------------------|
|---------------------------------|------------------------|
|---------------------------------|------------------------|
|---7------------------7-------5--|----------5----5-5------|
|---5-----------5---5--5---5---3--|------3---3----3-3-3-3--|
|---------------------------------|------------------------|
|
|   E       +Q     +Q.     E   E    +E   E   H.
|---------------------------------|------------------------|
|---------------------------------|------------------------|
|---------------------------------|------------------------|
|-[10]b12==(10)r==(10)----[7]-----|------------------------|
|-----------------------------[7]-|-(7)-[8]-[7]------------|
|---------------------------------|------------------------|


  G5                A5
     PM--|        PM        PM        PM|
  Q  E    E  Q    E E    E  E E E E E E E
|---------------------|-------------------|
|---------------------|-------------------|
|---------------------|-------------------|
|---------------------|-------------------|
|-5----------5------7-|-------7---7-7-----|
|-5--5----5--5----5-7-|-----7-7---7-7-7-7-|
|
| Q  E   +Q     Q   E   +H.           E E
|---------------------|-------------------|
|----8b9r(8)--------8-|-(8)---------------|
|-7------------10-----|---------------7-9-|
|---------------------|-------------------|
|---------------------|-------------------|
|---------------------|-------------------|


  D5                 C5
      PM--|        PM         PM        PM|
   Q  E    E  Q    E E    E   E Q   E E E E
|----------------------|--------------------|
|----------------------|--------------------|
|----------------------|--------------------|
|--7----------7------5-|--------5---5-5-----|
|--5--5----5--5----5-3-|------3-3---3-3-3-3-|
|----------------------|--------------------|
|
|  Q  E   +Q     Q   E   +E   E H.
|----------------------|--------------------|
|-----8b9r(8)----------|--------------------|
|-10------------10---9-|-(9)-10-9-----------|
|----------------------|--------------------|
|----------------------|--------------------|
|----------------------|--------------------|


  G5                A5
     PM--|        PM        PM        PM|
  Q  E    E  Q    E E    E  E E E E E E E
|---------------------|-------------------|
|---------------------|-------------------|
|---------------------|-------------------|
|---------------------|-------------------|
|-5----------5------7-|-------7---7-7-----|
|-5--5----5--5----5-7-|-----7-7---7-7-7-7-|
|
| Q  E   +Q     Q   E   +H.           E E
|---------------------|-------------------|
|----8b9r(8)--------8-|-(8)---------------|
|-7------------10-----|---------------7-9-|
|---------------------|-------------------|
|---------------------|-------------------|
|---------------------|-------------------|


  C5
   W                +W
|----------------|-------------------||
|----------------|-------------------||
|----------------|-------------------||
|--5-------------|--(5)--------------||
|--3-------------|--(3)--------------||
|----------------|-------------------||
|
|  Q.   Q.    Q     +E  Q.    Q  Q
|----------------|-------------------||
|----------------|-------------------||
|-10----9----10--|-(10)-9----10--9\--||
|----------------|-------------------||
|----------------|-------------------||
|----------------|-------------------||


 Breakdown
  N.C.                                        B5
  W                       H..                 E
|----------------------|------------------------||
|----------------------|------------------------||
|----------------------|------------------------||
|----------------------|----------------------9-||
|----------------------|----------------------9-||
|----------------------|----------------------9-||
|
| Gtr I
| E  E  E  E  Q   E  E    E    E  E  E  Q   E E
|------14----15--14----|-12------14----15--14---||
|---12----12--------12-|------12----12----------||
|----------------------|------------------------||
|----------------------|----------------------9-||
|----------------------|------------------------||
|----------------------|------------------------||


 Chorus
  B5                 A5
  +H..                E    +W
|-----------------------|------------------|
|-----------------------|------------------|
|-----------------------|------------------|
|-(9)-----------------7-|--(7)-------------|
|-(9)-----------------7-|--(7)-------------|
|-(9)-----------------7-|--(7)-------------|
|
| Gtr III
|  E   Q    E Q.      E    +E  E H.
|-----------------------|------------------|
|-----------------------|------------------|
|------7------7-------6-|--(6)---6---------|
|--9--------9-----------|------7-----------|
|-----------------------|------------------|
|-----------------------|------------------|
|
| Gtr I
| +Q      E Q     Q   E    +H.         E E
|-----------------------|------------------|
|-----------------------|------------------|
|--------11-9-----------|------------------|
|-(9)------------12--11-|-(11)---------9-7-|
|-----------------------|------------------|
|-----------------------|------------------|


  G5                E5          F#5
  H..               E   +H       H
|---------------------|----------------|
|---------------------|----------------|
|---------------------|----------------|
|-5-----------------2-|-(2)------4-----|
|-5-----------------2-|-(2)------4-----|
|-5-----------------2-|-(2)------4-----|
|
| E   Q    E Q    E E   +Q   Q  +H
|---------------------|----------------|
|---------------------|------7--(7)----|
|-----7------7------9-|-(9)------------|
|-9--------9------9---|----------------|
|---------------------|----------------|
|---------------------|----------------|
|
| Q      E Q    Q   E   +H       H
|---------------------|----------------|
|---------------------|----------------|
|-------11-9----------|----------------|
|-9------------12---9-|-(9)-----11-----|
|---------------------|----------------|
|---------------------|----------------|


  B5                A5                      G5                A5
  H..                E    +W                H..               E   +W
|----------------------|------------------|---------------------|--------------|
|----------------------|------------------|---------------------|--------------|
|----------------------|------------------|---------------------|--------------|
|-9------------------7-|--(7)-------------|-5-----------------7-|-(7)----------|
|-9------------------7-|--(7)-------------|-5-----------------7-|-(7)----------|
|-9------------------7-|--(7)-------------|-5-----------------7-|-(7)----------|
|
| E   Q    E Q.      E    +E  E H.          E   Q    E Q    E E   +W
|----------------------|------------------|---------------------|--------------|
|----------------------|------------------|---------------------|--------------|
|-----7------7-------6-|--(6)---6---------|-----7------7------9-|-(9)----------|
|-9--------9-----------|------7-----------|-9--------9------9---|--------------|
|----------------------|------------------|---------------------|--------------|
|----------------------|------------------|---------------------|--------------|
|
| Q      E Q     Q   E    +H.         E E   Q      E Q    Q   E   +H      H
|----------------------|------------------|---------------------|--------------|
|----------------------|------------------|---------------------|--------------|
|-------11-9-----------|------------------|-------11-9--------9-|-(9)----------|
|-9-------------12--11-|-(11)---------9-7-|-9------------12-----|--------11----|
|----------------------|------------------|---------------------|--------------|
|----------------------|------------------|---------------------|--------------|


  B5                A5
  H..                E    +W
|----------------------|------------------|
|----------------------|------------------|
|----------------------|------------------|
|-9------------------7-|--(7)-------------|
|-9------------------7-|--(7)-------------|
|-9------------------7-|--(7)-------------|
|
| E   Q    E Q.      E    +E  E H.
|----------------------|------------------|
|----------------------|------------------|
|-----7------7-------6-|--(6)---6---------|
|-9--------9-----------|------7-----------|
|----------------------|------------------|
|----------------------|------------------|
|
| Q      E Q     Q   E    +H.         E E
|----------------------|------------------|
|----------------------|------------------|
|-------11-9-----------|------------------|
|-9-------------12--11-|-(11)---------9-7-|
|----------------------|------------------|
|----------------------|------------------|


  G5                E5          F#5
  H..               E   +H       H
|---------------------|----------------|
|---------------------|----------------|
|---------------------|----------------|
|-5-----------------2-|-(2)------4-----|
|-5-----------------2-|-(2)------4-----|
|-5-----------------2-|-(2)------4-----|
|
| E   Q    E Q    E E   +Q   Q  +H
|---------------------|----------------|
|---------------------|------7--(7)----|
|-----7------7------9-|-(9)------------|
|-9--------9------9---|----------------|
|---------------------|----------------|
|---------------------|----------------|
|
| Q      E Q    Q   E   +H       H
|---------------------|----------------|
|---------------------|----------------|
|-------11-9----------|----------------|
|-9------------12---9-|-(9)-----11-----|
|---------------------|----------------|
|---------------------|----------------|


  B5                A5                      G5                A5
  H..                E    +W                H..               E   +W
|----------------------|------------------|---------------------|--------||
|----------------------|------------------|---------------------|--------||
|----------------------|------------------|---------------------|--------||
|-9------------------7-|--(7)-------------|-5-----------------7-|-(7)----||
|-9------------------7-|--(7)-------------|-5-----------------7-|-(7)----||
|-9------------------7-|--(7)-------------|-5-----------------7-|-(7)----||
|
| E   Q    E Q.      E    +E  E H.          E   Q    E Q    E E   +W
|----------------------|------------------|---------------------|--------||
|----------------------|------------------|---------------------|--------||
|-----7------7-------6-|--(6)---6---------|-----7------7------9-|-(9)----||
|-9--------9-----------|------7-----------|-9--------9------9---|--------||
|----------------------|------------------|---------------------|--------||
|----------------------|------------------|---------------------|--------||
|
| Q      E Q     Q   E    +H.         E E   Q      E Q    Q   E   +W
|----------------------|------------------|---------------------|--------||
|----------------------|------------------|---------------------|--------||
|-------11-9-----------|------------------|-------11-9--------9-|-(9)----||
|-9-------------12--11-|-(11)---------9-7-|-9------------12-----|--------||
|----------------------|------------------|---------------------|--------||
|----------------------|------------------|---------------------|--------||


 Out-Chorus
  B5                   A5
  H..                   E   +W
|-------------------------|-----------------------|
|-------------------------|-----------------------|
|-------------------------|-----------------------|
|-9---------------------7-|-(7)-------------------|
|-9---------------------7-|-(7)-------------------|
|-9---------------------7-|-(7)-------------------|
|
| Gtr III
| E    Q     E  Q.      E   +E   E  H.
|-------------------------|-----------------------|
|-------------------------|-----------------------|
|------7--------7-------6-|-(6)-----6-------------|
|-9----------9------------|------7----------------|
|-------------------------|-----------------------|
|-------------------------|-----------------------|
|
| Gtr I
| E    E  E  E  Q    E  E    E   E  E   E  Q   Q
|--------14----15---14----|-12-----14-----15--14--|
|-----12----12---------12-|-----12-----12---------|
|-------------------------|-----------------------|
|-------------------------|-----------------------|
|-------------------------|-----------------------|
|-------------------------|-----------------------|


  G5                    E5                F#5
    H..                  E   +H            H
|--------------------------|------------------------|
|--------------------------|------------------------|
|--------------------------|------------------------|
|---5--------------------2-|-(2)-----------4--------|
|---5--------------------2-|-(2)-----------4--------|
|---5--------------------2-|-(2)-----------4--------|
|
|   E    Q     E  Q   E  E   +Q      Q    +H
|--------------------------|------------------------|
|--------------------------|---------7----(7)-------|
|--------7--------7------9-|-(9)--------------------|
|---9----------9------9----|------------------------|
|--------------------------|------------------------|
|--------------------------|------------------------|
|
|  +E    E  E  E  Q   E  E    E   E  E  E  Q    Q
|-(14)-----14----15--14----|-12-----14----15---14---|
|-------12----12--------12-|-----12----12-----------|
|--------------------------|------------------------|
|--------------------------|------------------------|
|--------------------------|------------------------|
|--------------------------|------------------------|


  B5                    A5
   H..                   E   +W
|--------------------------|-----------------------|
|--------------------------|-----------------------|
|--------------------------|-----------------------|
|--9---------------------7-|-(7)-------------------|
|--9---------------------7-|-(7)-------------------|
|--9---------------------7-|-(7)-------------------|
|
|  E    Q     E  Q.      E   +E   E  H.
|--------------------------|-----------------------|
|--------------------------|-----------------------|
|-------7--------7-------6-|-(6)-----6-------------|
|--9----------9------------|------7----------------|
|--------------------------|-----------------------|
|--------------------------|-----------------------|
|
|  E    E  E  E  Q    E  E    E   E  E   E  Q   Q
|-14------14----15---14----|-12-----14-----15--14--|
|------12----12---------12-|-----12-----12---------|
|--------------------------|-----------------------|
|--------------------------|-----------------------|
|--------------------------|-----------------------|
|--------------------------|-----------------------|


  G5
                               >
    W                         +W
|---------------------------|-----------------------|
|---------------------------|-----------------------|
|---------------------------|-----------------------|
|---5-----------------------|-(5)-------------------|
|---5-----------------------|-(5)-------------------|
|---5-----------------------|-(5)-------------------|
|
|   E   H..                   +W
|---------------------------|-----------------------|
|---------------------------|-----------------------|
|-------7-------------------|-(7)-------------------|
|---9-----------------------|-----------------------|
|---------------------------|-----------------------|
|---------------------------|-----------------------|
|
|  +E   E    E  E  Q   E  E    E   E  E  E  Q   Q
|-(14)------14----15--14----|-12-----14----15--14---|
|------12------12--------12-|-----12----12----------|
|---------------------------|-----------------------|
|---------------------------|-----------------------|
|---------------------------|-----------------------|
|---------------------------|-----------------------|


     +W                       +W
||--------------------------|----------------------|
||o-------------------------|----------------------|
||--------------------------|----------------------|
||---(5)--------------------|-(5)------------------|
||o--(5)--------------------|-(5)------------------|
||---(5)--------------------|-(5)------------------|
|
|   Gtr I
|    +E   E  E  E  Q   E  E    E   E  E  E  Q   Q
||--(14)----14----15--14----|-12-----14----15--14--|
||o------12----12--------12-|-----12----12---------|
||--------------------------|----------------------|
||--------------------------|----------------------|
||o-------------------------|----------------------|
||--------------------------|----------------------|


                            N.C.
   +W                        W
|-------------------------|----------------------||
|-------------------------|---------------------o||
|-------------------------|----------------------||
|--(5)--------------------|----------------------||
|--(5)--------------------|---------------------o||
|--(5)--------------------|----------------------||
|
|  +E   E  E  E  Q   E  E    E  E  E  E  Q   Q
|-(14)----14----15--14----|-12----14----15--14---||
|------12----12--------12-|----12----12---------o||
|-------------------------|----------------------||
|-------------------------|----------------------||
|-------------------------|---------------------o||
|-------------------------|----------------------||


Duration Legend
---------------
W - whole; H - half; Q - quarter; E - 8th; S - 16th; T - 32nd; X - 64th; a - acciaccatura
+ - note tied to previous; . - note dotted; .. - note double dotted
Uncapitalized letters represent notes that are staccato (1/2 duration)
Irregular groupings are notated above the duration line
Duration letters will always appear directly above the note/fret number it represents the
duration for.  Duration letters with no fret number below them represent rests.  Multi-
bar rests are notated in the form Wxn, where n is the number of bars to rest for.  Low
melody durations appear below the staff

Tablature Legend
----------------
 h   - hammer-on
 p   - pull-off
 b   - bend
 pb  - pre-bend
 r   - bend release (if no number after the r, then release immediately)
 /\  - slide into or out of (from/to "nowhere")
 s   - legato slide
 S   - shift slide
  - natural harmonic
[n]  - artificial harmonic
n(n) - tapped harmonic
 ~   - vibrato
 tr  - trill
 T   - tap
 TP  - trem. picking
 PM  - palm muting
\n/  - tremolo bar dip; n = amount to dip
 \n  - tremolo bar down
 n/  - tremolo bar up
/n\  - tremolo bar inverted dip
 =   - hold bend; also acts as connecting device for hammers/pulls
 <>  - volume swell (louder/softer)
 x   - on rhythm slash represents muted slash
 o   - on rhythm slash represents single note slash

Misc Legend
-----------
 |  - bar
||  - double bar
||o - repeat start
o|| - repeat end
*|  - double bar (ending)
 :  - bar (freetime)
 $  - Segno
 &  - Coda
Tempo markers -  = BPM(8/16=s8/s16), where s8 = swing 8ths, s16 = swing 16ths





Comments


Popular 69 Eyes tabs & chords
Devils Bass Tabs
Stolen Season 2 Bass Tabs
The Chair 3 Bass Tabs
Velvet Touch Bass Tabs
Wasting The Dawn Bass Tabs
Feel Berlin Chords
Lost Boys 1 Tabs
Velvet Touch Tabs
Borderline Ukulele
Chair Ukulele


Song lyrics



↑ Back to top | Tablatures and chords are parodies/interpretations of the original songs. You may use it for private study, scholarship, research or language learning purposes only
© 2014 AZChords.com Contact us | Privacy policy | DMCA | Add/correct tabs | Request tabs | Top 50 tabs