>
 >
Christina Death

Christina Death Bass Tabs

69 Eyes - Christina Death chords, tabs, tablatures, lyrics

Guitar lessons | Add/correct | Request | Top 50 tabs Artists:  A B C D E F G H I J K L M N O P Q R S T U V W X Y Z 0-9

Christina Death Bass Tabs – 69 Eyes

CD, Sheet music, Poster

Do you like Christina Death? Share with your friends now
Bass TabsTabs
#------------------------------------------------------------------------------##

                           CHRISTINA DEATH (Bassline)
                           As recorded by The 69 Eyes
                          (From the 2004 Album DEVILS)

Words by Jyrki

Music by Bazie

Gtr I (Db Ab Db Gb) - 'Untitled'
Gtr II (Db Ab Db Gb) - 'Untitled'

 Intro
  Q=134
 4/4
  Gtr II
  Wx4
|--------|
|--------|
|--------|
|--------|


  W          W          W          W
|-2--------|-0--------|----------|------|
|----------|----------|-3--------|-0----|
|----------|----------|----------|------|
|----------|----------|----------|------|


  H..       E   +W           H..       E   +H     H
|-2---------0-|-(0)--------|-------------|-------------|
|-------------|------------|-3---------0-|-(0)----2----|
|-------------|------------|-------------|-------------|
|-------------|------------|-------------|-------------|


  H..       E   +W           W          +W
|-2---------0-|-(0)--------|----------|--------||
|-------------|------------|-3--------|-(3)----||
|-------------|------------|----------|--------||
|-------------|------------|----------|--------||


 Chorus
  $
  Gtr I
  H..       E   +W           H..       E   +H     H
|-------------|------------|-------------|-------------|
|-------------|------------|-------------|-------------|
|-------------|------------|-------------|-------------|
|-7---------5-|-(5)--------|-3---------0-|-(0)----2----|


  H..       E   +W           H..       E   +W
|-------------|------------|-------------|--------||
|-------------|------------|-------------|--------||
|-------------|------------|-------------|--------||
|-7---------5-|-(5)--------|-3---------5-|-(5)----||


 Verse
  Q    E E E +E  E E   +E  E E E +E  E E E
|--------------------|---------------------|
|--------------------|---------------------|
|--------------------|---------------------|
|-0----0-0-0-(0)-0-2-|-(2)-2-2-2-(2)-2-2-2-|
|
| Gtr II
| H..              E   +H.             Q
|--------------------|---------------------|
|-0----------------2-|-(2)-------------2---|
|--------------------|---------------------|
|--------------------|---------------------|


  Q    E E Q  E E   +E  E E +E  E E E E
|-----------------|---------------------|
|-----------------|---------------------|
|-----------------|---------------------|
|-7----7-7-7--7-5-|-(5)-5-5-(5)-5-5-5-5-|
|
| H..           E   +W
|-----------------|---------------------|
|-----------------|---------------------|
|-0---------------|---------------------|
|---------------5-|-(5)-----------------|


  Q    E E E +E  E E   +E  E E E +E  E E E
|--------------------|---------------------|
|--------------------|---------------------|
|--------------------|---------------------|
|-0----0-0-0-(0)-0-2-|-(2)-2-2-2-(2)-2-2-2-|
|
| H..              E   +H.             Q
|--------------------|---------------------|
|-0----------------2-|-(2)-------------2---|
|--------------------|---------------------|
|--------------------|---------------------|


  Q    E E Q  E E   +E  E E +E  E E E E
|-----------------|---------------------|
|-----------------|---------------------|
|-----------------|---------------------|
|-7----7-7-7--7-7-|-(7)-7-7-(7)-7-7-7-7-|
|
| H..           E   +W
|-----------------|---------------------|
|-----------------|---------------------|
|-0-------------0-|-(0)-----------------|
|-----------------|---------------------|


  Q    E E E +E  E E   +E  E E E +E  E E E
|--------------------|---------------------|
|--------------------|---------------------|
|--------------------|---------------------|
|-0----0-0-0-(0)-0-2-|-(2)-2-2-2-(2)-2-2-2-|
|
| H..              E   +H.             Q
|--------------------|---------------------|
|-0----------------2-|-(2)-----------------|
|--------------------|---------------------|
|--------------------|-----------------2---|


  Q    E E Q  E E   +E  E E +E  E E E E
|-----------------|---------------------|
|-----------------|---------------------|
|-----------------|---------------------|
|-7----7-7-7--7-5-|-(5)-5-5-(5)-5-5-5-5-|
|
| H..           E   +W
|-----------------|---------------------|
|-----------------|---------------------|
|-0---------------|---------------------|
|---------------5-|-(5)-----------------|


                                                    D.S.
  Q    E E E +E  E E   +E  E E E +E  E E E   W          +W
|--------------------|---------------------|----------|--------||
|--------------------|---------------------|----------|--------||
|--------------------|---------------------|----------|--------||
|-0----0-0-0-(0)-0-2-|-(2)-2-2-2-(2)-2-2-2-|-5--------|-(5)----||
|
| H..              E   +W                    W          +W
|--------------------|---------------------|----------|--------||
|-0----------------2-|-(2)-----------------|----------|--------||
|--------------------|---------------------|----------|--------||
|--------------------|---------------------|-5--------|-(5)----||


   Chorus
    H..       E   +W           H..       E   +H     H
||--------------|------------|-------------|-------------|
||o-------------|------------|-------------|-------------|
||o-------------|------------|-------------|-------------|
||--7---------5-|-(5)--------|-3---------0-|-(0)----2----|


  1.
  H..       E   +W           H..       E   +W
|-------------|------------|-------------|---------||
|-------------|------------|-------------|--------o||
|-------------|------------|-------------|--------o||
|-7---------5-|-(5)--------|-3---------5-|-(5)-----||


  2.
  H..       E   +W           W          +W
|-------------|------------|----------|--------||
|-------------|------------|----------|--------||
|-------------|------------|----------|--------||
|-7---------5-|-(5)--------|-3--------|-(3)----||


   Guitar Solo
    Q  E E E E E E   +E  E E E E E E E   Q  E E E E E E   +E  E E E E E E E   3x
||-----------------|-------------------|----------------|---------------------||
||o----------------|-------------------|----------------|--------------------o||
||o----------------|-------------------|--------------3-|-(3)-3-3-3-3-3-3-3--o||
||--5--5-5-5-5-5-7-|-(7)-7-7-7-7-7-7-7-|-0--0-0-0-0-0---|---------------------||


  Q  E E E E E E   +E  E E E E E E E   W          +W
|----------------|-------------------|----------|--------||
|----------------|-------------------|----------|--------||
|----------------|-------------------|-3--------|-(3)----||
|-5--5-5-5-5-5-7-|-(7)-7-7-7-7-7-7-7-|----------|--------||


 Breakdown
  W          H..       E
|----------|-------------||
|----------|-------------||
|----------|-------------||
|----------|-----------9-||


 Chorus
  +H..       E   +W           H..       E   +H     H
|--------------|------------|-------------|-------------|
|--------------|------------|-------------|-------------|
|--------------|------------|-------------|-------------|
|-(9)--------7-|-(7)--------|-5---------2-|-(2)----4----|


  H..       E   +W           H..       E   +W
|-------------|------------|-------------|--------|
|-------------|------------|-------------|--------|
|-------------|------------|-------------|--------|
|-9---------7-|-(7)--------|-5---------7-|-(7)----|


  H..       E   +W           H..       E   +H     H
|-------------|------------|-------------|-------------|
|-------------|------------|-------------|-------------|
|-------------|------------|-------------|-------------|
|-9---------7-|-(7)--------|-5---------2-|-(2)----4----|


  H..       E   +W           H..       E   +W
|-------------|------------|-------------|--------||
|-------------|------------|-------------|--------||
|-------------|------------|-------------|--------||
|-9---------7-|-(7)--------|-5---------7-|-(7)----||


 Out-Chorus
  H..       E   +W           H..       E   +H     H
|-------------|------------|-------------|-------------|
|-------------|------------|-------------|-------------|
|-------------|------------|-------------|-------------|
|-9---------7-|-(7)--------|-5---------2-|-(2)----4----|


  H..       E   +W           W          +W
|-------------|------------|----------|--------|
|-------------|------------|----------|--------|
|-------------|------------|----------|--------|
|-9---------7-|-(7)--------|-5--------|-(5)----|


  +W           +W           +W           Wx5
|------------|------------|------------|--------*|
|------------|------------|------------|--------*|
|------------|------------|------------|--------*|
|-(5)--------|-(5)--------|-(5)--------|--------*|


Duration Legend
---------------
W - whole; H - half; Q - quarter; E - 8th; S - 16th; T - 32nd; X - 64th; a - acciaccatura
+ - note tied to previous; . - note dotted; .. - note double dotted
Uncapitalized letters represent notes that are staccato (1/2 duration)
Irregular groupings are notated above the duration line
Duration letters will always appear directly above the note/fret number it represents the
duration for.  Duration letters with no fret number below them represent rests.  Multi-
bar rests are notated in the form Wxn, where n is the number of bars to rest for.  Low
melody durations appear below the staff

Tablature Legend
----------------
 h   - hammer-on
 p   - pull-off
 b   - bend
 pb  - pre-bend
 r   - bend release (if no number after the r, then release immediately)
 /\  - slide into or out of (from/to "nowhere")
 s   - legato slide
 S   - shift slide
  - natural harmonic
[n]  - artificial harmonic
n(n) - tapped harmonic
 ~   - vibrato
 tr  - trill
 T   - tap
 TP  - trem. picking
 PM  - palm muting
\n/  - tremolo bar dip; n = amount to dip
 \n  - tremolo bar down
 n/  - tremolo bar up
/n\  - tremolo bar inverted dip
 =   - hold bend; also acts as connecting device for hammers/pulls
 <>  - volume swell (louder/softer)
 x   - on rhythm slash represents muted slash
 o   - on rhythm slash represents single note slash

Misc Legend
-----------
 |  - bar
||  - double bar
||o - repeat start
o|| - repeat end
*|  - double bar (ending)
 :  - bar (freetime)
 $  - Segno
 &  - Coda
Tempo markers -  = BPM(8/16=s8/s16), where s8 = swing 8ths, s16 = swing 16ths





Comments


Popular 69 Eyes tabs & chords
Brandon Lee Bass Tabs
Still Waters Run Deep Bass Tabs
Stolen Season Bass Tabs
The Chair 3 Bass Tabs
Wasting The Dawn Bass Tabs
Dead Girls Are Easy Tabs
From Dusk Till Dawn Tabs
Gothic Girl Intro Tabs
Lost Boys Tabs
Sleeping With Lions Tabs


Song lyrics



↑ Back to top | Tablatures and chords are parodies/interpretations of the original songs. You may use it for private study, scholarship, research or language learning purposes only
© 2014 AZChords.com Contact us | Privacy policy | DMCA | Add/correct tabs | Request tabs | Top 50 tabs