>
 >
Beneath The Blue

Beneath The Blue Guitar Tabs

69 Eyes - Beneath The Blue chords, tabs, tablatures, lyrics

Guitar lessons | Add/correct | Request | Top 50 tabs Artists:  A B C D E F G H I J K L M N O P Q R S T U V W X Y Z 0-9

Beneath The Blue Guitar Tabs – 69 Eyes

CD, Sheet music, Poster

Do you like Beneath The Blue? Share with your friends now
Bass TabsTabs
#------------------------------------------------------------------------------##

                                BENEATH THE BLUE
                           As recorded by The 69 Eyes
                          (From the 2004 Album DEVILS)

Words by Jyrki69

Music by Bazie
Arranged by Johnny Lee Michaels & The 69 Eyes

          Dm                   Bb                    G                    C
      x 5 7 7 6 5          x x 8 7 6 6          x x 5 4 3 3          x 3 5 5 5 3

Gtr I (Db Ab Db Gb Bb Eb) - 'Piano'
Gtr II (Db Ab Db Gb Bb Eb) - 'Electric mute'
Gtr III (Db Ab Db Gb Bb Eb) - 'Timo Timo'
Gtr IV (Db Ab Db Gb Bb Eb) - 'Bazie'
Gtr V (Db Ab Db Gb Bb Eb) - 'Clean'
Gtr VI (Db Ab Db Gb Bb Eb) - 'Acoustic'

 Intro
  Q=125
  N.C.        D5                Bb5               G5/D              C5
 4/4
  Gtr III
   E E Q  E E Q     E  E E Q  E Q     E E E Q   E Q     E  E E Q  E Q
|----------------|-----------------|-----------------|-----------------|
|----------------|-----------------|-----------------|-----------------|
|-------------7--|--7--x-x-7--7-3--|--3-x-x-3---3-7--|--7--x-x-7--7-5--|
|----5-7--5---7--|--7--x-x-7--7-3--|--3-x-x-3---3-5--|--5--x-x-5--5-5--|
|-/8--------8-5--|--5--x-x-5--5-1--|--1-x-x-1---1-5--|--5--x-x-5--5-3--|
|----------------|-----------------|-----------------|-----------------|
|
| Gtr IV
|  E E Q  E E Q     E  E E Q  E Q     E E Q   E E Q     E  E E Q  E Q
|----------------|-----------------|-----------------|-----------------|
|----------------|-----------------|-----------------|-----------------|
|-------------7--|--7--x-x-7--7-3--|--------------7--|--7------7--7-5--|
|----5-7--5---7--|--7--x-x-7--7-3--|----5-7---5---5--|--5--x-x-5--5-5--|
|--8--------8-5--|--5--x-x-5--5-1--|-/8---------8-5--|--5--x-x-5--5-3--|
|----------------|-----------------|-----------------|-----------------|
|
| Gtr I
|  E E Q  E E Q    +W                 E E Q   E E Q    +Q    H      Q
|----3-5--3------|-----------------|----3-5---3---3--|-(3)-------------|
|--6--------6-3--|-(3)-------------|--6---------6----|-------6------5--|
|----------------|-----------------|-----------------|-----------------|
|----------------|-----------------|-----------------|-----------------|
|----------------|-----------------|-----------------|-----------------|
|----------------|-----------------|-----------------|-----------------|


                D5                Bb5
  E E E E +Q    Q     E  E E Q  E Q
|------------------|-----------------|
|------------------|-----------------|
|-5-x-x-5-(5)---7--|--7--x-x-7--7-3--|
|-5-x-x-5-(5)---7--|--7--x-x-7--7-3--|
|-3-x-x-3-(3)---5--|--5--x-x-5--5-1--|
|------------------|-----------------|
|
| E E Q    E  E Q     E  E E Q  E Q
|------------------|-----------------|
|------------------|-----------------|
|---------------7--|--7--x-x-7--7-3--|
|---5-7----5----7--|--7--x-x-7--7-3--|
|-8-----------8-5--|--5--x-x-5--5-1--|
|------------------|-----------------|
|
| E E Q    E  E Q    +W
|---3-5----3-------|-----------------|
|-6-----------6-3--|-(3)-------------|
|------------------|-----------------|
|------------------|-----------------|
|------------------|-----------------|
|------------------|-----------------|


              G5/D              C5
                                             >
  E E E Q   E Q     E  E E Q  E Q    +H     +H
|----------------|-----------------|---------------||
|----------------|-----------------|---------------||
|-3-x-x-3---3-7--|--7--x-x-7--7-5--|-(5)----(5)----||
|-3-x-x-3---3-5--|--5--x-x-5--5-5--|-(5)----(5)----||
|-1-x-x-1---1-5--|--5--x-x-5--5-3--|-(3)----(3)----||
|----------------|-----------------|---------------||
|
|                                            >
| E E Q   E E Q     E  E E Q  E Q    +H     +H
|----------------|-----------------|---------------||
|----------------|-----------------|---------------||
|-------------7--|--7--x-x-7--7-5--|-(5)----(5)----||
|---5-7---5---5--|--5--x-x-5--5-5--|-(5)----(5)----||
|-8---------8-5--|--5--x-x-5--5-3--|-(3)----(3)----||
|----------------|-----------------|---------------||
|
| E E Q   E E Q    +Q    H      Q    +W
|---3-5---3---3--|-(3)-------------|---------------||
|-6---------6----|-------6------5--|-(5)-----------||
|----------------|-----------------|---------------||
|----------------|-----------------|---------------||
|----------------|-----------------|---------------||
|----------------|-----------------|---------------||


 Verse
  N.C.
  Gtr II
  E E Q  E E Q    E E Q  E E Q    E E Q  E E Q    E E Q  E E Q
|---------------|---------------|---------------|---------------|
|-----5------6--|-----5------8--|-----6------5--|-----6------5--|
|---7------7----|---7------7----|---7------7----|---7------7----|
|-7------7------|-7------7------|-7------7------|-7------7------|
|---------------|---------------|---------------|---------------|
|---------------|---------------|---------------|---------------|


                                                                 D5
  E E Q  E E Q    E E Q  E E Q    E E Q  E E Q    E   E Q  E E Q
|---------------|---------------|---------------|------------------|
|-----6------8--|-----6------5--|-----6------5--|-------6------5---|
|---7------7----|---7------7----|---7------7----|-----7------7-----|
|-7------7------|-7------7------|-7------7------|-7--------7-------|
|---------------|---------------|---------------|------------------|
|---------------|---------------|---------------|------------------|
|
|                                                 Gtr IV
| W               W               W               H..            E
|---------------|---------------|---------------|------------------|
|---------------|---------------|---------------|------------------|
|---------------|---------------|---------------|------------------|
|---------------|---------------|---------------|----------------7-|
|---------------|---------------|---------------|----------------5-|
|---------------|---------------|---------------|------------------|


               Bb                G5                F5           N.C.    D5/A
   E  E Q  E E Q     E  E Q  E E Q     E  E Q  E E Q     E  E Q   E E Q
|-----------------|-----------------|-----------------|---------------------|
|-------6------8--|-------6------5--|-------6------5--|-------6-------5-----|
|-----7------7----|-----7------7----|-----7------7----|-----7-------7-------|
|--7-------7------|--7-------7------|--7-------7------|--7--------7---------|
|-----------------|-----------------|-----------------|---------------------|
|-----------------|-----------------|-----------------|---------------------|
|
| +H.          Q    +H.          Q    +H.          Q    +Q.     E E Q    E
|-----------------|-----------------|-----------------|---------------------|
|-----------------|-----------------|-----------------|---------------------|
|-----------------|-----------------|-----------------|---------------------|
|-(7)----------0--|-(0)-------------|-----------------|------------------7--|
|-(5)----------1--|-(1)----------5--|-(5)----------3--|-(3)--------------5--|
|-----------------|--------------5--|-(5)----------3--|-(3)-----3-5-7---(7)-|


                                                        $
               Bb                G5                F5   N.C.         Bb
                                                        Gtr V
   E  E Q  E E Q     E  E Q  E E Q     E  E Q  E E Q    H..            E
|-----------------|-----------------|-----------------|------------------||
|-------6------8--|-------6------5--|-------6------5--|------------------||
|-----7------7----|-----7------7----|-----7------7----|------------------||
|--7-------7------|--7-------7------|--7-------7------|------------------||
|-----------------|-----------------|-----------------|----------------1-||
|-----------------|-----------------|-----------------|------------------||
|
| +H.          Q    +H.          Q    +H.          Q    E   E Q  E E Q
|-----------------|-----------------|-----------------|------------------||
|-----------------|-----------------|-----------------|------------------||
|-----------------|-----------------|-----------------|--------------7---||
|-(7)----------0--|-(0)-------------|-----------------|-----5-7--5---8---||
|-(5)----------1--|-(1)----------5--|-(5)----------3--|-8----------8-8---||
|-(7)-------------|--------------5--|-(5)----------3--|--------------8---||
|
|                                                       Gtr I
|  W                 W                 W                E   E Q  E E E E
|-----------------|-----------------|-----------------|-----3-5--3-------||
|-----------------|-----------------|-----------------|-6----------6-3---||
|-----------------|-----------------|-----------------|------------------||
|-----------------|-----------------|-----------------|------------------||
|-----------------|-----------------|-----------------|------------------||
|-----------------|-----------------|-----------------|------------------||


 Pre-Chorus
                  N.C.         G                     N.C.           Dm
                                                                    Gtr VI
   W              W                   W              H..            E
                                                                    |
                                                                    /

                                                     Gtr III
   E  H..         H..            E    E  H..         H.           E E
|---------------|------------------|---------------|------------------||
|---------------|------------------|---------------|------------------||
|-----3---------|------------------|---------------|----------------7-||
|--3------------|------------------|-----5---------|--------------x-7-||
|---------------|------------------|--5------------|--------------x-5-||
|---------------|----------------5-|---------------|------------------||
|
| +W              E   E Q  E E Q     +W              E   E Q  E Q   E
|---------------|------------------|---------------|------------------||
|---------------|------------------|---------------|------------------||
|-(7)-----------|--------------4---|-(4)-----------|----------------7-||
|-(8)-----------|-----5-7--5---5---|-(5)-----------|-----5-7--5-----7-||
|-(8)-----------|-8----------8-5---|-(5)-----------|-8----------8---5-||
|-(8)-----------|--------------5---|-(5)-----------|------------------||
|
|  W              E   E Q  E E Q     +W              E   E Q  E E Q
|---------------|-----3-5--3---3---|-(3)-----------|-----3-5--3-------||
|---------------|-6----------6-----|---------------|-6----------6-3---||
|---------------|------------------|---------------|------------------||
|---------------|------------------|---------------|------------------||
|---------------|------------------|---------------|------------------||
|---------------|------------------|---------------|------------------||


 Chorus
                Bb               G                  C                 Dm
  +E  Q   E E E Q    E E Q   E E Q     E  Q   E E E Q    E E Q  E E E E
   |  |   | | | |    | | |   | | |     |  |   | | | |    | | |  | | | |
   /  /   / / / /    / / /   / / /     /  /   / / / /    / / /  / / / /

  +E  E E Q   E Q    E E E Q   E Q     E  E E Q   E Q    E E Q  E E E E
|------------------|----------------|------------------|----------------|
|------------------|----------------|------------------|----------------|
|-(7)-x-x-7---7-3--|-3-x-x-3---3-7--|--7--x-x-7---7-5--|-5---5--5-5-x-7-|
|-(7)-x-x-7---7-3--|-3-x-x-3---3-5--|--5--x-x-5---5-5--|-5---5--5-5-x-7-|
|-(5)-x-x-5---5-1--|-1-x-x-1---1-5--|--5--x-x-5---5-3--|-3---3--3-3-x-5-|
|------------------|----------------|------------------|----------------|
|
| +H.           Q    E E Q   E E Q    +E  E E E Q   Q    E E Q  E E Q
|------------------|----------------|------------------|----------------|
|------------------|----------------|------------------|----------------|
|-(7)-----------3--|-------------7--|-(7)-x-x-------5--|------------7---|
|-(7)-----------3--|---5-7---5---5--|-(5)-x-x-5-5---5--|---5-7--5---7---|
|-(5)-----------1--|-8---------8-5--|-(5)-x-x-5-5---3--|-8--------8-5---|
|------------------|----------------|---------5-5------|----------------|
|
| +W                 E E Q   E E Q    +Q    H       Q    E E Q  E E Q
|------------------|---3-5---3---3--|-(3)--------------|---3-5--3-------|
|-(3)--------------|-6---------6----|-------6-------5--|-6--------6-3---|
|------------------|----------------|------------------|----------------|
|------------------|----------------|------------------|----------------|
|------------------|----------------|------------------|----------------|
|------------------|----------------|------------------|----------------|


                Bb               G
  +E  Q   E E E Q    E E Q   E E Q
   |  |   | | | |    | | |   | | |
   /  /   / / / /    / / /   / / /

  +E  E E Q   E Q    E E E Q   E Q
|------------------|----------------|
|------------------|----------------|
|-(7)-x-x-7---7-3--|-3-x-x-3---3-7--|
|-(7)-x-x-7---7-3--|-3-x-x-3---3-5--|
|-(5)-x-x-5---5-1--|-1-x-x-1---1-5--|
|------------------|----------------|
|
| +H.           Q    E E Q   E E Q
|------------------|----------------|
|------------------|----------------|
|-(7)-----------3--|-------------7--|
|-(7)-----------3--|---5-7---5---5--|
|-(5)-----------1--|-8---------8-5--|
|------------------|----------------|
|
| +W                 E E Q   E E Q
|------------------|---3-5---3---3--|
|-(3)--------------|-6---------6----|
|------------------|----------------|
|------------------|----------------|
|------------------|----------------|
|------------------|----------------|


            To Coda
                C                 N.C.
   E  Q   E E E Q    +W           W
   |  |   | | | |     |
   /  /   / / / /     /

   E  E E Q   E Q    +W           W
|------------------|------------|---------------||
|------------------|------------|---------------||
|--7--x-x-7---7-5--|-(5)--------|---------------||
|--5--x-x-5---5-5--|-(5)--------|---------------||
|--5--x-x-5---5-3--|-(3)--------|---------------||
|------------------|------------|---------------||
|
|  E  E E Q   E Q    +W           E E Q  E E Q
|------------------|------------|---------------||
|------------------|------------|---------------||
|--7--x-x-7---7-5--|-(5)--------|---------------||
|--5--x-x-5---5-5--|-(5)--------|---------------||
|--5--x-x-5---5-3--|-(3)--------|---------------||
|------------------|------------|-3-5-7--5-3-0--||
|
| +Q    H       Q    +W           W
|-(3)--------------|------------|---------------||
|-------6-------5--|-(5)--------|---------------||
|------------------|------------|---------------||
|------------------|------------|---------------||
|------------------|------------|---------------||
|------------------|------------|---------------||


 Verse
  N.C.             Bb                     G5
  Gtr I
   E   E  Q   E  E  Q     E   E  Q   E  E  Q
|--------12--------13--|--------12--------15--|
|-----15--------15-----|-----15--------15-----|
|-14---------14--------|-14---------14--------|
|----------------------|----------------------|
|----------------------|----------------------|
|----------------------|----------------------|
|
| +H.               Q    +H.               Q
|----------------------|----------------------|
|----------------------|----------------------|
|----------------------|----------------------|
|-------------------0--|-(0)------------------|
|-------------------1--|-(1)---------------5--|
|-(0)------------------|-------------------5--|


                   F5              N.C.       D5/A
   E   E  Q   E  E  Q     E   E  Q    E  E  Q
|--------13--------12--|--------13---------12-----|
|-----15--------15-----|-----15---------15--------|
|-14---------14--------|-14----------14-----------|
|----------------------|--------------------------|
|----------------------|--------------------------|
|----------------------|--------------------------|
|
| +H.               Q    +Q.       E  E  Q     E
|----------------------|--------------------------|
|----------------------|--------------------------|
|----------------------|--------------------------|
|----------------------|-----------------------7--|
|-(5)---------------3--|-(3)-------------------5--|
|-(5)---------------3--|-(3)-------3--5--7----(7)-|


                     Bb                     G5
     E   E  Q   E  E  Q     E   E  Q   E  E  Q
||---------13--------15--|--------13--------12--|
||o-----15--------15-----|-----15--------15-----|
||--14---------14--------|-14---------14--------|
||-----------------------|----------------------|
||o----------------------|----------------------|
||-----------------------|----------------------|
|
|   +H.               Q    +H.               Q
||-----------------------|----------------------|
||o----------------------|----------------------|
||-----------------------|----------------------|
||--(7)---------------0--|-(0)------------------|
||o-(5)---------------1--|-(1)---------------5--|
||--(7)------------------|-------------------5--|


                   F5              N.C.       D5/A
   E   E  Q   E  E  Q     E   E  Q    E  E  Q
|--------13--------12--|--------13---------12-------||
|-----15--------15-----|-----15---------15---------o||
|-14---------14--------|-14----------14-------------||
|----------------------|----------------------------||
|----------------------|---------------------------o||
|----------------------|----------------------------||
|
| +H.               Q    +Q.       E  E  Q     E
|----------------------|----------------------------||
|----------------------|---------------------------o||
|----------------------|----------------------------||
|----------------------|-----------------------7----||
|-(5)---------------3--|-(3)-------------------5---o||
|-(5)---------------3--|-(3)-------3--5--7----(7)---||


                   Bb                     G5
   W                      W
   E   E  Q   E  E  Q     E   E  Q   E  E  Q
|--------13--------15--|--------13--------12--|
|-----15--------15-----|-----15--------15-----|
|-14---------14--------|-14---------14--------|
|----------------------|----------------------|
|----------------------|----------------------|
|----------------------|----------------------|
|
| +H.               Q    +H.               Q
|----------------------|----------------------|
|----------------------|----------------------|
|----------------------|----------------------|
|-(7)---------------0--|-(0)------------------|
|-(5)---------------1--|-(1)---------------5--|
|-(7)------------------|-------------------5--|
|
|  W                      W
|----------------------|----------------------|
|----------------------|----------------------|
|----------------------|----------------------|
|----------------------|----------------------|
|----------------------|----------------------|
|----------------------|----------------------|


                         Interlude
       D.S. al Coda       &
                   F5     C         G5/D
                          Gtr VI
   W                      H..         E
                          |
                          /

                          Gtr III
   E   E  Q   E  E  Q     H..         E
|--------13--------12--||---------------|
|-----15--------15-----||---------------|
|-14---------14--------||-5-----------7-|
|----------------------||-5-----------5-|
|----------------------||-3-----------5-|
|----------------------||---------------|
|
| +H.               Q     H..         E
|----------------------||---------------|
|----------------------||---------------|
|----------------------||-5-------------|
|----------------------||-5---------/12-|
|-(5)---------------3--||-3-------------|
|-(5)---------------3--||---------------|
|
|                         Gtr I
|  W                      W
|----------------------||---------------|
|----------------------||-5-------------|
|----------------------||---------------|
|----------------------||---------------|
|----------------------||---------------|
|----------------------||---------------|


                                  N.C.     Bb5
   +W                      +Q.     E E E E  E
|-----------------------|---------------------|
|-----------------------|---------------------|
|--(7)------------------|--(7)--------------3-|
|--(5)------------------|--(5)-------3------3-|
|--(5)------------------|--(5)----/5---5-3--1-|
|-----------------------|---------------------|
|
|   H      +E   E   Q      +H..             E
|-----------------------|---------------------|
|-----------------------|---------------------|
|--12-----(12)-----14---|-(14)----------------|
|-(12)----(12)-12-(12)--|-(12)-------------/8-|
|-----------------------|---------------------|
|-----------------------|---------------------|


                               N.C.     G5/D
  +W                    +Q.     E E E E   E
|--------------------|----------------------|
|--------------------|----------------------|
|-(3)----------------|--(3)---------------7-|
|-(3)----------------|--(3)-------3-------5-|
|-(1)----------------|--(1)----/5---5-----5-|
|--------------------|----------------5-----|
|
|  H      +E  E  Q      +H..              E
|--------------------|----------------------|
|--------------------|----------------------|
|-10-----(10)---10---|-(10)-----------------|
|-(8)-----(8)-8-(8)--|--(8)-------------/12-|
|--------------------|----------------------|
|--------------------|----------------------|


                                  N.C.     F5/C
    W                       W
   +W                      +Q.     E E E E   E
|-----------------------|----------------------|
|-----------------------|----------------------|
|--(7)------------------|--(7)---------------5-|
|--(5)------------------|--(5)-------3-------3-|
|--(5)------------------|--(5)----/5---5-----3-|
|-----------------------|----------------8-----|
|
|   H      +E   E   Q      +H..              E
|-----------------------|----------------------|
|-----------------------|----------------------|
|--12-----(12)-----14---|-(14)-----------------|
|-(12)----(12)-12-(12)--|-(12)-------------/12-|
|-----------------------|----------------------|
|-----------------------|----------------------|
|
|   W                       W
|-----------------------|----------------------|
|-----------------------|----------------------|
|-----------------------|----------------------|
|-----------------------|----------------------|
|-----------------------|----------------------|
|-----------------------|----------------------|


                           N.C.           Dm
                                        Gtr VI
    W                      H..            E
                                          |
                                          /

   +W                      E   E Q  E E E E
|------------------------|------------------||
|------------------------|------------------||
|--(5)-------------------|----------------7-||
|--(3)-------------------|-----5-7--5---x-7-||
|--(3)-------------------|-8----------8-x-5-||
|------------------------|------------------||
|
|   H      +E    E   Q     E   E Q  E E E E
|------------------------|------------------||
|------------------------|------------------||
|--10-----(10)------12---|------------------||
|-(12)----(12)-/12-(12)--|-----5-7--5---x-7-||
|------------------------|-8----------8-x-5-||
|------------------------|------------------||
|
|                          Gtr I
|   W                      E   E Q  E E Q
|------------------------|-----3-5--3-------||
|------------------------|-6----------6-3---||
|------------------------|------------------||
|------------------------|------------------||
|------------------------|------------------||
|------------------------|------------------||


   Chorus
                  Bb                 G
    +E  Q   E E E Q     E  E Q   E E Q
     |  |   | | | |     |  | |   | | |
     /  /   / / / /     /  / /   / / /

    +E  E E Q   E Q     E  E E Q   E Q
||-------------------|------------------|
||o------------------|------------------|
||--(7)-x-x-7---7-3--|--3--x-x-3---3-7--|
||--(7)-x-x-7---7-3--|--3--x-x-3---3-5--|
||o-(5)-x-x-5---5-1--|--1--x-x-1---1-5--|
||-------------------|------------------|
|
|   +H.           Q    +H.           Q
||-------------------|------------------|
||o------------------|------------------|
||-------------------|------------------|
||--(7)-----------8--|-(8)-----------5--|
||o-(5)-----------8--|-(8)-----------5--|
||-------------------|------------------|
|
|   +W                  E  E Q   E E Q
||-------------------|-----3-5---3---3--|
||o-(3)--------------|--6----------6----|
||-------------------|------------------|
||-------------------|------------------|
||o------------------|------------------|
||-------------------|------------------|


                    1.,2.,3.           4.
                C                 Dm    C            D5
   E  Q   E E E Q    E E Q  E E E E     E E Q  E E E E
   |  |   | | | |    | | |  | | | |     | | |  | | |
   /  /   / / / /    / / /  / / / /     / / /  / / /

   E  E E Q   E Q    E E Q  E E E E  4x E E Q  E E E E
|------------------|-----------------||------------------||
|------------------|----------------o||------------------||
|--7--x-x-7---7-5--|-5---5--5-5-x-7--||-5---5--5-5-x-----||
|--5--x-x-5---5-5--|-5---5--5-5-x-7--||-5---5--5-5-x-----||
|--5--x-x-5---5-3--|-3---3--3-3-x-5-o||-3---3--3-3-x-0---||
|------------------|-----------------||--------------0---||
|
|  E  E E Q   E Q    E E Q  E E Q    4x E E Q  E E Q
|------------------|-----------------||------------------||
|------------------|----------------o||------------------||
|------------------|-----------------||------------------||
|--5--x-x-5---5-5--|---5-7--5---7----||---5-7--5---7-----||
|--5--x-x-5---5-3--|-8--------8-5---o||-8--------8-5-----||
|------------------|-----------------||------------------||
|
| +Q    H       Q    E E Q  E E Q    4x E E Q  E E Q
|-(3)--------------|---3-5--3--------||---3-5--3---------||
|-------6-------5--|-6--------6-3---o||-6--------6-3-----||
|------------------|-----------------||------------------||
|------------------|-----------------||------------------||
|------------------|----------------o||------------------||
|------------------|-----------------||------------------||


 Outro
          F5/CG5/D  D5                     F5/G5/D  D5
  +E  E E Q    E     Q          E  E   E   Q   E     Q
|---------------------------|-------------------------------|
|---------------------------|-------------------------------|
|---------------------------|-------------------------------|
|---------3----5------------|--------------3---5------------|
|-(0)-x-x-3----5-----0------|---x--x---x---3---5-----0------|
|-(0)-x-x------------0------|---x--x---x-------------0------|
|
|  H        E  E     Q         +Q     +Q.      E     Q
|-------------10----10------|-(10)---(10)-----10----10------|
|-------------13b15-13b15===|=(13)---(13)r----13b15-13b15===|
|---------------------------|-------------------------------|
|---------------------------|-------------------------------|
|---------------------------|-------------------------------|
|---------------------------|-------------------------------|
|
|  W                            W
|---------------------------|-------------------------------|
|---------------------------|-------------------------------|
|---------------------------|-------------------------------|
|---------------------------|-------------------------------|
|---------------------------|-------------------------------|
|---------------------------|-------------------------------|


           F5/C   G5D5         F5/CG5D5
    E  E E Q      E Q    E E E Q   E Q
|----------------------|----------------|
|----------------------|----------------|
|----------------------|----------------|
|----------3------5----|-------3---5----|
|---x--x-x-3------5-0--|-x-x-x-3---5-0--|
|---x--x-x----------0--|-x-x-x-------0--|
|
|  +H         +Q    Q    W
|-(10)-------(10)------|----------------|
|-(13)r======(13)------|----------------|
|----------------------|----------------|
|----------------------|----------------|
|----------------------|----------------|
|----------------------|----------------|
|
|   W                    E E Q   E E Q
|----------------------|---3-5---3------|
|----------------------|-6---------6-3--|
|----------------------|----------------|
|----------------------|----------------|
|----------------------|----------------|
|----------------------|----------------|


                 F5/C   G5D5                        F5/C    G5/D  D5
  E  E     E     Q      E   Q       E    E     E      Q      E      Q
|-------------------------------|-----------------------------------------|
|-------------------------------|-----------------------------------------|
|-------------------------------|-----------------------------------------|
|----------------3------5-------|---------------------3------5------------|
|-x--x-----x-----3------5---0---|---x----x-----x------3------5------0-----|
|-x--x-----x----------------0---|---x----x-----x--------------------0-----|
|
|                                                                   ~~~~
| E  E     Q        +Q     +Q      +E    E     E      E   E  E     +E   E
|---10----10-------(10)---(10)--|-(10)--10----10----(10)------------------|
|---13b15-13b15====(13)---(13)--|-(13)r-13b15-13b15--13--10---------------|
|-------------------------------|---------------------------12b14-(12)----|
|-------------------------------|--------------------------------------12-|
|-------------------------------|-----------------------------------------|
|-------------------------------|-----------------------------------------|
|
| W                                 W
|-------------------------------|-----------------------------------------|
|-------------------------------|-----------------------------------------|
|-------------------------------|-----------------------------------------|
|-------------------------------|-----------------------------------------|
|-------------------------------|-----------------------------------------|
|-------------------------------|-----------------------------------------|


            F5/G5D5         F5/CG5D5
    E  E E  Q  E Q    E E E Q   E Q
|-------------------|----------------*|
|-------------------|----------------*|
|-------------------|----------------*|
|-----------3--5----|-------3---5----*|
|---x--x-x--3--5-0--|-x-x-x-3---5-0--*|
|---x--x-x-------0--|-x-x-x-------0--*|
|
|   >
|  +Q    H.           W
|-------------------|----------------*|
|-------------------|----------------*|
|-------------------|----------------*|
|-(12)--------------|----------------*|
|-------------------|----------------*|
|-------------------|----------------*|
|
|   W                 E E Q   E E Q
|-------------------|---3-5---3------*|
|-------------------|-6---------6-3--*|
|-------------------|----------------*|
|-------------------|----------------*|
|-------------------|----------------*|
|-------------------|----------------*|


Duration Legend
---------------
W - whole; H - half; Q - quarter; E - 8th; S - 16th; T - 32nd; X - 64th; a - acciaccatura
+ - note tied to previous; . - note dotted; .. - note double dotted
Uncapitalized letters represent notes that are staccato (1/2 duration)
Irregular groupings are notated above the duration line
Duration letters will always appear directly above the note/fret number it represents the
duration for.  Duration letters with no fret number below them represent rests.  Multi-
bar rests are notated in the form Wxn, where n is the number of bars to rest for.  Low
melody durations appear below the staff

Tablature Legend
----------------
 h   - hammer-on
 p   - pull-off
 b   - bend
 pb  - pre-bend
 r   - bend release (if no number after the r, then release immediately)
 /\  - slide into or out of (from/to "nowhere")
 s   - legato slide
 S   - shift slide
  - natural harmonic
[n]  - artificial harmonic
n(n) - tapped harmonic
 ~   - vibrato
 tr  - trill
 T   - tap
 TP  - trem. picking
 PM  - palm muting
\n/  - tremolo bar dip; n = amount to dip
 \n  - tremolo bar down
 n/  - tremolo bar up
/n\  - tremolo bar inverted dip
 =   - hold bend; also acts as connecting device for hammers/pulls
 <>  - volume swell (louder/softer)
 x   - on rhythm slash represents muted slash
 o   - on rhythm slash represents single note slash

Misc Legend
-----------
 |  - bar
||  - double bar
||o - repeat start
o|| - repeat end
*|  - double bar (ending)
 :  - bar (freetime)
 $  - Segno
 &  - Coda
Tempo markers -  = BPM(8/16=s8/s16), where s8 = swing 8ths, s16 = swing 16ths





Comments


Popular 69 Eyes tabs & chords
Sleeping With Lions Bass Tabs
The Chair 3 Bass Tabs
Dance D Amour Chords
Dance D Amour Tabs
Dead N' Gone Tabs
Framed In Blood Tabs
From Dusk Till Dawn Tabs
From Dusk Till Dawn 1 Tabs
Rocker Intro Tabs
Some Kind Of Magick Tabs


Song lyrics



↑ Back to top | Tablatures and chords are parodies/interpretations of the original songs. You may use it for private study, scholarship, research or language learning purposes only
© 2014 AZChords.com Contact us | Privacy policy | DMCA | Add/correct tabs | Request tabs | Top 50 tabs