>
 >
Beneath The Blue

Beneath The Blue Bass Tabs

69 Eyes - Beneath The Blue chords, tabs, tablatures, lyrics

Guitar lessons | Add/correct | Request | Top 50 tabs Artists:  A B C D E F G H I J K L M N O P Q R S T U V W X Y Z 0-9

Beneath The Blue Bass Tabs – 69 Eyes

CD, Sheet music, Poster

Do you like Beneath The Blue? Share with your friends now
Bass TabsTabs
#------------------------------------------------------------------------------##

                           BENEATH THE BLUE (Bassline)
                           As recorded by The 69 Eyes
                          (From the 2004 Album DEVILS)

Words by Jyrki69

Music by Bazie
Arranged by Johnny Lee Michaels & The 69 Eyes

Gtr I (Db Ab Db Gb) - 'Archzie'

 Intro
  Q=125
 4/4
  Gtr I
  E E Q  E E Q    E E E E E  E Q    E E E E E E Q    E E E E E E  Q
|---------------|-----------------|----------------|-----------------|
|---5-7--5------|-----------10-8--|-8-8-8-8-5-8-5--|-5-5-5-5-5-8-10--|
|-8--------8-5--|-5-5-5-5-5-------|----------------|-----------------|
|---------------|-----------------|----------------|-----------------|


   E  E  E  E  E  E Q    E E E E E  E Q
|----------------------|-----------------|
|-10-10-10-10-10-10----|-----------10-8--|
|-------------------5--|-5-5-5-5-5-------|
|----------------------|-----------------|


  E E E E E E Q    E E E E E E  Q     +H.      Q
|----------------|-----------------|--------------||
|-8-8-8-8-5-8-5--|-5-5-5-5-5-8-10--|-(10)---------||
|----------------|-----------------|--------------||
|----------------|-----------------|-----------0--||


   Verse
    E E E E E E Q    E E E E E E Q    E E E E E E Q    E E E E E E Q    3x
||-----------------|----------------|----------------|------------------||
||o----------------|----------------|----------------|-----------------o||
||o-------------1--|-1-1-1-1-0------|----------------|-----------------o||
||--0-0-0-0-3-5----|-----------3-5--|-5-5-5-5-5-5-3--|-3-3-3-3-5-7-0----||


                                                     $
  E E E E E E Q    E E E E E E Q    E E E E E E Q    E E E E E E E +E
|----------------|----------------|----------------|-------------------||
|----------------|----------------|----------------|-------------------||
|-------------1--|-1-1-1-1-0------|----------------|-------------------||
|-0-0-0-0-3-5----|-----------3-5--|-5-5-5-5-5-5-3--|-3-3-3-3-5-3-8-(8)-||


 Pre-Chorus
  E E E E E E E E   E E E E E E E E   E E E E E E E E   E E Q  E E E E
|-----------------|-----------------|-----------------|----------------||
|-----------------|-----------------|-----------------|----------------||
|-----------------|-----------------|-----------------|----------------||
|-8-8-8-8-8-8-8-8-|-8-8-8-8-8-8-8-5-|-5-5-5-5-5-5-5-5-|-3-3-3--3-3-0-0-||


 Chorus
  E E E E E  E Q    E E E E E E Q    E E E E E E  Q     E  E  E  E  E  E E E
|-----------------|----------------|-----------------|-----------------------|
|-----------------|----------------|-----------------|-----------------------|
|-----------------|----------------|-----------------|-----------------------|
|-0-0-0-0-0-10-8--|-8-8-8-8-5-8-5--|-5-5-5-5-5-8-10--|-10-10-10-10-10-10-0-0-|


  E E E E E  E Q    E E E E E E Q
|-----------------|----------------|
|-----------------|----------------|
|-----------------|----------------|
|-0-0-0-0-0-10-8--|-8-8-8-8-5-8-5--|


           To Coda
  E E E E E E  Q     +W           E E Q  E E Q
|-----------------|-------------|---------------||
|-----------------|-------------|---------------||
|-----------------|-------------|---------------||
|-5-5-5-5-5-8-10--|-(10)--------|-3-5-7--5-3-0--||


   Verse
    E E E E E E Q    E E E E E E Q    E E E E E E Q    E E E E E E Q    3x
||-----------------|----------------|----------------|------------------||
||o----------------|----------------|----------------|-----------------o||
||o-------------1--|-1-1-1-1-0------|----------------|-----------------o||
||--0-0-0-0-3-5----|-----------3-5--|-5-5-5-5-5-5-3--|-3-3-3-3-5-7-0----||


                                                     Interlude
                                    D.S. al Coda         &
  E E E E E E Q    E E E E E E Q    E E E E E E Q      a  +H..       E
|----------------|----------------|----------------||------------------|
|----------------|----------------|----------------||------------------|
|-------------1--|-1-1-1-1-0------|----------------||------------------|
|-0-0-0-0-3-5----|-----------3-5--|-5-5-5-5-5-5-3--||-10-(10)--------5-|


  E E E E E E E E   E E E E E E E E   E E E E E E E E   E E E E E E E E
|-----------------|-----------------|-----------------|-----------------|
|-----------------|-----------------|-----------------|-----------------|
|-----------------|-----------------|-----------------|-----------------|
|-5-5-5-5-5-5-5-5-|-5-5-5-5-5-5-8-8-|-8-8-8-8-8-8-8-8-|-8-8-8-8-8-8-8-5-|


  E E E E E E E E   E E E E E E E E   E E H.        E E Q  E E E E
|-----------------|-----------------|-------------|----------------||
|-----------------|-----------------|-------------|----------------||
|-----------------|-----------------|-------------|-3-3-3--3-3-3---||
|-5-5-5-5-5-5-5-5-|-5-5-5-5-5-5-5-3-|-3-0-3-------|--------------0-||


   Chorus
    E E E E E  E Q    E E E E E E Q
||------------------|----------------|
||o-----------------|----------------|
||o-----------------|----------------|
||--0-0-0-0-0-10-8--|-8-8-8-8-5-8-5--|


  E E E E E E  Q     E  E  E  E  E  E E +E    4x
|-----------------|---------------------------||
|-----------------|--------------------------o||
|-----------------|--------------------------o||
|-5-5-5-5-5-8-10--|-10-10-10-10-10-10-0-(0)---||


   Outro
    E E E Q  E Q    E E E Q  E Q    E E E Q  E Q    E E E Q  E Q
||----------------|---------------|---------------|-----------------||
||o---------------|---------------|---------------|----------------o||
||o---------------|---------------|---------------|----------------o||
||--0-0-0-3--5-0--|-0-0-0-3--5-0--|-0-0-0-3--5-0--|-0-0-0-3--5-0----||


Duration Legend
---------------
W - whole; H - half; Q - quarter; E - 8th; S - 16th; T - 32nd; X - 64th; a - acciaccatura
+ - note tied to previous; . - note dotted; .. - note double dotted
Uncapitalized letters represent notes that are staccato (1/2 duration)
Irregular groupings are notated above the duration line
Duration letters will always appear directly above the note/fret number it represents the
duration for.  Duration letters with no fret number below them represent rests.  Multi-
bar rests are notated in the form Wxn, where n is the number of bars to rest for.  Low
melody durations appear below the staff

Tablature Legend
----------------
 h   - hammer-on
 p   - pull-off
 b   - bend
 pb  - pre-bend
 r   - bend release (if no number after the r, then release immediately)
 /\  - slide into or out of (from/to "nowhere")
 s   - legato slide
 S   - shift slide
  - natural harmonic
[n]  - artificial harmonic
n(n) - tapped harmonic
 ~   - vibrato
 tr  - trill
 T   - tap
 TP  - trem. picking
 PM  - palm muting
\n/  - tremolo bar dip; n = amount to dip
 \n  - tremolo bar down
 n/  - tremolo bar up
/n\  - tremolo bar inverted dip
 =   - hold bend; also acts as connecting device for hammers/pulls
 <>  - volume swell (louder/softer)
 x   - on rhythm slash represents muted slash
 o   - on rhythm slash represents single note slash

Misc Legend
-----------
 |  - bar
||  - double bar
||o - repeat start
o|| - repeat end
*|  - double bar (ending)
 :  - bar (freetime)
 $  - Segno
 &  - Coda
Tempo markers -  = BPM(8/16=s8/s16), where s8 = swing 8ths, s16 = swing 16ths





Comments


Popular 69 Eyes tabs & chords
Framed In Blood Bass Tabs
Gothic Girl Bass Tabs
Sleeping With Lions Bass Tabs
Brandon Lee Chords
Feel Berlin Chords
Back In Blood Intro Tabs
Devils Tabs
Gothic Girl 1 Tabs
Lost Boys 1 Tabs
Brandon Lee Ukulele


Song lyrics



↑ Back to top | Tablatures and chords are parodies/interpretations of the original songs. You may use it for private study, scholarship, research or language learning purposes only
© 2014 AZChords.com Contact us | Privacy policy | DMCA | Add/correct tabs | Request tabs | Top 50 tabs